Guitaretab - guitar tabs
Song name
# A B C D E F G H I J K L M N O P Q R S T U V W X Y Z

Die Toten Hosen - Wort Zum Sonntag tab

  Die Toten Hosen - 
  
  Wort Zum Sonntag

[Intro, 1.Part]
(Begleitung)
     Em               D                C
E |--0------3-3-2-0---2----2--2-2----------------------------|
H |--0--------------3-3----3--3-3------1---------------------|
G |--0----0-----------2----2--2-2------0-----0--1---3---1----|
D |--2----------------0----------------2------------------0--|
A |--2-------------------------------2-3---3-----------------|
E |--0-------------------------------------------------------|

     G        Hm             Em                   D
E |------------------------------0-----3-3-2-0----2---2--2-2-|
H |--0--0-3-0--------------------0----------------3---3--3-3-|
G |--0--------3--------------0---0---0---------0--2---2--2-2-|
D |--0--------3--------------2---2----------------0----------|
A |--2--------2--2/3\2-0-----2-------------------------------|
E |--3-------------------3-2-0-0-----------------------------|

             C                   G        Hm
E |--(2)---------0------3--0--------------------------|
H |--(3)---------1------1-----1-------0-3-------------|
G |----------0---0----0-0--------0--------4---0----0--|
D |----------2--------2-2--------0--------4-----4-----|
A |------0-2-3------3------------2--------2-----------|
E |------------------------------3--------------------|

(Gepfiffen)
     Em                D                    C
E |--------------------2--2--2--5-2-----2---2-3-3--3----3-3--|
H |--5--3---5-3-5-------------------------5------------------|
G |----------------------------------------------------------|
D |----------------------------------------------------------|
A |----------------------------------------------------------|
E |----------------------------------------------------------|

         G           Hm     Em                 D
E |--3-3---------------------------------------2--2---2--5-2-|
H |------3--3--3------------5--5--5--3-5-----3---------------|
G |--------------4-2-4---------------------------------------|
D |----------------------------------------------------------|
A |----------------------------------------------------------|
E |----------------------------------------------------------|

           C                     G           Hm
E |-----2--3-3--3--3-3--3----3-3----------------|
H |--5---------------------------3--3--3--------|
G |--------------------------------------4-2-4--|
D |---------------------------------------------|
A |---------------------------------------------|
E |---------------------------------------------|

[Intro, 2.Part]
(Begleitung)
                                           _ _ _ _ 1 _ _ _ _
     C                  D                 |Hm
E |:---------------------------------------------------------|
H |:---------------------------------------------------------|
G |:------0-----0------------0-----0------------2-----2------|
D |:----2-----2-----2------2-----2-----2------0-----0-----0--|
A |:--3-----3-----3------5-----5-----5------2-----2-----2----|
E |:---------------------------------------------------------|

    _ _ _ _ (1) _ _ _    _ _ _ _ _ _ 2 _ _ _ _ _ _
                     |  |                         |
E |-------------------:|---------------------------|
H |-------------------:|---------------------------|
G |------1-----1------:|---------------------------|
D |----0-----0-----0--:|-[2-2-2-2-2-2-2-2-2-2-2-2]-|
A |--2-----2-----2----:|-[2-2-2-2-2-2-2-2-2-2-2-2]-|
E |-------------------:|---------------------------|

(Gepfiffen)
E |--3--3---3--5--5----2---2---2--3----3--3---3--5--5----2---|
H |--------------------------------------------------------5-|
G |----------------------------------------------------------|
D |----------------------------------------------------------|
A |----------------------------------------------------------|
E |----------------------------------------------------------|
[1.Strophe]
(= Intro, 1.Part)

Früher war alles besser
früher war alles gut
Da hielten alle noch zusammen
die Bewegung hatte noch Wut
Früher, hör auf mit früher
ich will es nicht mehr hören
Damals war es auch nicht anders
mich kann das alles nicht stören

[Refrain]
(= Intro, 2.Part)

Ich bin noch keine 60
und ich bin auch nicht nah dran
Und erst dann möcht ich erzählen
was früher einmal war
[ Tab from: http://www.guitaretab.com/d/die-toten-hosen/74274.html ]
[2.Strophe*]
    Em             C
Solange Johnny Thunders lebt
    G                  D
solange bleib ich ein Punk
   Em               C
solange es was zu Trinken gibt
         G               D
dauern alle unsere Feste an
    Am                   F
solange ich noch zwei Freunde find
        C                       G
werden wir durch die Strassen ziehn
   Am                      F
solang die Wellenreiter lästern
n         C                      G
weiß ich daß es nichts besseres gibt

[Refrain]
(=Intro, 2.Part)

Ich bin noch keine 60
und ich bin auch nicht nah dran
Und erst dann möcht ich erzählen
was früher einmal war
Ich werde immer laut durchs Leben ziehn
jeden Tag in jedem Jahr
Und wenn ich wirklich einmal anders bin
ist mir das heute noch scheiß egal

[Solo]
F  G  Em  F
F  G  Am
F  G  Em  F
F  G  Am
                                                       _ 1 _
                                                      |
E |:---------------------------------------1--1--0-1-¦-------|
H |:-------------------3----3-----3-----3------------¦-------|
G |:---2-5---2-5-----4----4-----4-----4--------------¦---2-5-|
D |:-3-------------5----------5----------------------¦-3-----|
A |:-------------------------------------------------¦-------|
E |:-------------------------------------------------¦-------|

    _ _ _ _ _ _ _ _ (1) _ _ _ _ _ _ _ _ _ _ _    _ _ 2 _ _ _
                                             |  |
E |------------------------------------------:|--------------|
H |------------3----3--------------6-6---6-5-:|--6-6-6-6-6-6-|
G |---2-5----4----4----------------5-5---5-4-:|--5-5-5-5-5-5-|
D |--------5---------------------------------:|--------------|
A |------------------------------------------:|--------------|
E |------------------------------------------:|--------------|

    _ _ _ _ _ _ _ _ _ _ (2) _ _ _ _ _ _ _ _ _ _ _
                                                 |
E |-----------------------------------------------|
H |--5-5-3---3---3-3-3-3-4-4-4-4-4-4-4-4-4-4-4-4--|
G |--5-5-3---3---3-3-3-3-3-3-3-3-3-3-3-3-3-3-3-3--|
D |-----------------------------------------------|
A |-----------------------------------------------|
E |-----------------------------------------------|
[3.Strophe]
(= 2.Strophe)

Kein Zeitungsknabe wird uns jemals befehlen
was grad alt oder brandneu ist
Damit würd' er höchstens soviel erzielen
wie ein Hund, der gegen Bäume pisst
Das Ende setzen wir uns selbst
und niemand anders auf der Welt
Begreift besser jetzt als nie
es kommt erst wenn es uns gefällt

[Refrain]
Wir sind noch keine 60
und wir sind auch nicht nah dran
Und erst dann werden wir erzählen
was früher einmal war
Wir werden immer laut durchs Leben ziehn
jeden Tag in jedem Jahr
Und wenn wir wirklich einmal anders sind
ist das heute noch scheiß egal
Wir werden immer laut durchs Leben ziehn
jeden Tag in jedem Jahr
Und wenn wir wirklich einmal anders sind
ist das heute noch scheiß egal

[Coda]
Sologitarre:
E |---------------2--2--2-2-2-2-2--2--2-----3--3--3-3-3-3----|
H |--5--5--5-5-5------------------------5-3------------------|
G |----------------------------------------------------------|
D |----------------------------------------------------------|
A |----------------------------------------------------------|
E |----------------------------------------------------------|

E |--3--3--3-3-3---5--5--5----------------------|
H |--------------5-----------5--5--5-5--5--5-5--|
G |---------------------------------------------|
D |---------------------------------------------|
A |---------------------------------------------|
E |---------------------------------------------|

Begleitgitarre:
E |----------------------------------------------------|
H |----------------------------------------------------|
G |-----5----5-------7----7-------4----4-------5----5--|
D |-----5----5-------7----7-------4----4-------5----5--|
A |--3--3--3-3--3-5--5--5-5--5-2--2--2-2--2-3--3--3-3--|
E |----------------------------------------------------|

E |----------------------------------------------------|
H |----------------------------------------------------|
G |-----5----5-------7----7----------------------------|
D |-----5----5-------7----7----2--2--2--2--2--2--2-----|
A |--3--3--3-3--3-5--5--5-5--5-2--2--2--2--2--2--2-----|
E |----------------------------0--0--0--0--0--0--0-----|



Look out and make the Shisha an!!!!!!!!!!!
Related for Wort Zum Sonntag tab
Advertisement will be closed in 10 seconds