Song name
# A B C D E F G H I J K L M N O P Q R S T U V W X Y Z

Die Toten Hosen - Kopf Oder Zahl tab

I haven't found any tabs about this song on the internet,
so I tried it myself. I'm sure it's absolute rubbish (like my English ;)


TablEdited by TheL
Tuning : E A D G B E 	Time Signature: 4/4

Main Riff:
 |       |       |       |        |       |       |       |
|--------------------------------|--------------------------------|
|--------------------------------|--------------------------------|
|--------------------------------|--------------------------------|
|2-------2---4---3-------2-------|2-------2---4---3---------------|
|2---6p4-2-------3---4---2---6p4-|2---6p4-2-------3---4-----0---2-|
|0-------0-------1-------0-------|0-------0-------1-------4---6---|

Chorus:                            _______
                                  |1.
 |       |       |       |        |       |       |       |          
|--------------------------------|--------------------------------|
|--------------------------------|--------------------------------|
|----------------7-7-7-7-7-7-7-7-|----------------5-5-5-5-5-5-5-5-|
|5-------5-------x-x-x-x-x-x-x-x-|3-------3-------x-x-x-x-x-x-x-x-|
|5-------5-------5-5-5-5-5-5-5-5-|3-------3-------3-3-3-3-3-3-3-3-|
|3-------3-----------------------|1-------1-----------------------|
  _______
 |2.
 |       |       |       |           
|--------------------------------|
|--------------------------------|
|----------------3-3-3-3-3-3-3-3-|
|3-------3-------x-x-x-x-x-x-x-x-|
|3-------3-------1-1-1-1-1-1-1-1-|
|1-------1-----------------------|

Post Chorus:
                                   _______
                                  |1.
 |       |       |       |        |       |       |       |            
|--------------------------------|--------------------------------|
|--------------------------------|--------------------------------|
|--------------------------------|--------------------------------|
|5-------5-------3-3-3-3-3-3-3-3-|5-------5-------3-3-3-3-3-3-3-3-|
|5-------5-------x-x-x-x-x-x-x-x-|5-------5-------x-x-x-x-x-x-x-x-|
|3-------3-------1-1-1-1-1-1-1-1-|3-------3-------1-1-1-1-1-1-1-1-|
 
  ________
 |2.
 |        |      |       |
|--------------------------------|
|--------------------------------|
|--------------------------------|
|3-------3-------5-5-5-5-5-5-5-5-|
|3-------3-------x-x-x-x-x-x-x-x-|
|1-------1-------3-3-3-3-3-3-3-3-|

Order:
Intro(Main Riff): 4x
Verse(Main Riff): 3x
Chorus: 2x
Post Chorus: 2x
Fill (Main Riff): 1x
Verse (Main Riff): 2x
Chorus: 2x
Fill (Main Riff): 1x
Chorus: 4x
Outro(Main Riff): 2x

Created with TablEdit http://www.tabledit.com/
Tap to rate this tab
 
# A B C D E F G H I J K L M N O P Q R S T U V W X Y Z