Song name
# A B C D E F G H I J K L M N O P Q R S T U V W X Y Z

Die Toten Hosen - Reisefieber tab

tabed by : Wigi
Song: Reisefieber
Band: Toten Hosen

Intro:

Gitarre 1
e--------------------------------------------------|
h--------------------------------------------------|
g--------------------------------------------------|
D-5-5-5-5-5-5--------------------------------------|
A-5-5-5-5-5-5--------------------------------------|
E-3-3-3-3-3-3--------------------------------------|

Gitarre 2
e------------------------------------------------------|
h------------------------------------------------------|
g------------------------------------------------------|
D---------------------------55-33----5-5-5-5-----------|
A--------------------------------5-3-5-5-5-5-----------|
E-0-1-2-3-0-1-2-3-0-1-2-3-33---------3-3-3-3-----------|

0:32

Gitarre 1
e---------------------------------------------------------|
h---------------------------------------------------------|
g---------------------------------------------------------|
D-5-5-5-........------------------------------------------|
A-5-5-5-........------------------------------------------|
E-3-3-3-........------------------------------------------|

Gitarre 2
e-7-7--5-5-5----------------------------------------------|
h-8-8--6-6-6----------------------------------------------|
g-7-7--5-5-5----------------------------------------------|
D---------------------------------------------------------|
A---------------------------------------------------------|
E---------------------------------------------------------|

0:42

Gitarre 1
Das gleiche wird auch bei den Versen gespielt

e----------------------------------------------------------|
h----------------------------------------------------------|
g----------------------------------------------------------|
D----------------------------------------------------------|
A-5-5-5-5-5-5-5-7-7-7-7-7-7-7-7----------------------------|
E-3-3-3-3-3-3-3-5-5-5-5-5-5-5-5----------------------------|

Gitarre 2

e-----------------------------------------------------------------|
h-----------------------------------------------------------------|
g-----------------------------------------------------------------|
D---55-33-----77-55----7-7-7--------------------------------------|
A--------5-3-------7-5-7-7-7--------------------------------------|
E-33--------55---------5-5-5--------------------------------------|

1:09
e--------------------------------------------------------|
h--------------------------------------------------------|
g-5-5-5-5-5-5-5-7-7-7-7----------------------------------|
D-5-5-5-5-5-5-5-7-7-7-7----------------------------------|
A-3-3-3-3-3-3-3-5-5-5-5----------------------------------|
E--------------------------------------------------------|

Die Nordsee schlägt dir ins Gesicht trozdem hast du verloren......
e---------------------------------------------------------------|
h---------------------------------------------------------------|
g-5-......------------------------------------------------------|
D-5-......7-......-3-.....--5-----------------------------------|
A-3-......7-......-3-.....--5-----------------------------------|
E---------5-......-1-......-3-----------------------------------|
Tap to rate this tab
# A B C D E F G H I J K L M N O P Q R S T U V W X Y Z