Song name
# A B C D E F G H I J K L M N O P Q R S T U V W X Y Z

Die Toten Hosen - Allein Vor Deinem Haus tab

Tabed by : Wigi Ettlingen
Band: Die Toten Hosen
Song: Allein vor deinem Haus
Album: Opel Gang

Intro
e------------------------------------------------------------|
h------------------------------------------------------------|
G------------------------------------------------------------|
D-------7-5-5-5-5-3-3-3--------------------------------------|
A-3-3-3-5-3-3-3-3-1-1-1-3-3-3--------------------------------|
E-1-1-1-----------------1-1-1--------------------------------|

Alle Versen
e------------------------------------------------------------|
h------------------------------------------------------------|
G------------------------------------------------------------| 4x
D---------5-5-5-5-3-3-3-3------------------------------------|
A-3-3-3-3-3-3-3-3-1-1-1-1------------------------------------|
E-1-1-1-1----------------------------------------------------|

Refrain
e------------------------------------------------------------|
h------------------------------------------------------------|
G------------------------------------------------------------| 2x
D-7-7-7-5-5-5-7-7-7-7-5--------------------------------------|
A-5-5-5-3-3-3-5-5-5-5-3--------------------------------------|
E------------------------------------------------------------|

Alein allein allein...
e------------------------------------------------------------|
h------------------------------------------------------------|
G----------3-------------------------------------------------|
D-3-3-3-3--1-------------------------------------------------|
A-1-1-1-1----------------------------------------------------|
E------------------------------------------------------------|

1:16

Gitarre 1
e------------------------------------------------------------|
h------------------------------------------------------------|
G------------------------------------------------------------|
D---------7-5-5-5-5-3-3-3-3----------------------------------|
A-3-3-3-3-5-3-3-3-3-1-1-1-1-3--------------------------------|
E-1-1-1-1-------------------1--------------------------------|

Gitarre 2
e------------------------------------------------------------|
h------------------------------------------------------------|
G---2---2-----2---2------------------------------------------|
D-----5---3-----5--------------------------------------------|
A-3---------3-------1----------------------------------------|
E------------------------------------------------------------|
Tap to rate this tab
 
# A B C D E F G H I J K L M N O P Q R S T U V W X Y Z