Song name
# A B C D E F G H I J K L M N O P Q R S T U V W X Y Z

Diecast - Never Forget tab

Never Forget - Diecast-------------------------------------------------------------
Tabbed by: Tyler Schultz
Email: t.schultz10@hotmail.com

    So this is a pretty nasty tune by a nasty band Diecast and there wasn't a tab for it 
i thought i'd give it a shot. It sounds pretty good. Email me with any corrections. 
in palm mutes when needed, i wasn't gonna bother writing them all in.

Tuning: Drop C

d |--------------------------------------------------------------------|
a |--------------------------------------------------------------------|
f |--------------------------------------------------------------------|
c |------------------8-7---7-5---5-7------------------5-4---4-3---3-2--|  x4
g |------------------8-7---7-5---5-7------------------3-2---2-1---1-0--|
c |-0-2-3-5-3-2-0-2--8-7-0-7-5-0-5-7--0-2-3-5-3-2-0-2-----0-----0------|

d |---------------------                    d |-----|
a |---------------------                    a |-----|
f |---------------------                    f |-----|
c |--------------------- x9 pause and then  c |-----|
g |---------------------                    g |-5ph-|
c |-1-000-000-000-0-000-                    c |-----|

d |--------------------------------------------------|
a |--------------------------------------------------|
f |---------------------------5-5---------2-2--------|
c |-0-------------------7-5-3-3-3-7--5-7--2-2-7--5-7-| x3
g |-0-0-3-5--5-7-8--5-8------------------------------|
c |-0------------------------------------------------|

d |-----------------   d |-----------|
a |-----------------   a |-----------|
f |-3333333333--5~--   f |-----------|
c |-3333333333--5~--   c |-----------|
g |-1111111111--3~--   g |-----------|
c |-----------------   c |-0-0-0-0-0-|

d |---------------------           d |-----------------------|
a |---------------------           a |-----------------------|
f |---------------------           f |-----------------------|
c |--------------------- x7  then  c |-----------------------|
g |---------------------           g |------------------5ph--|
c |-1-000-000-000-0-000-           c |-000-000-000-----------|

d |--------------------------------------------------|
a |--------------------------------------------------|
f |---------------------------5-5---------2-2--------|
c |-0-------------------7-5-3-3-3-7--5-7--2-2-7--5-7-| x3
g |-0-0-3-5--5-7-8--5-8------------------------------|
c |-0------------------------------------------------|

d |----------------------|
a |----------------------|
f |-33333333335555555555-|
c |-33333333335555555555-|
g |-11111111113333333333-|
c |----------------------|

d |--------------------------------------------------------------------|
a |--------------------------------------------------------------------|
f |--------------------------------------------------------------------|
c |------------------8-7---7-5---5-7------------------5-4---4-3---3-2--|  x3
g |------------------8-7---7-5---5-7------------------3-2---2-1---1-0--|
c |-0-2-3-5-3-2-0-2--8-7-0-7-5-0-5-7--0-2-3-5-3-2-0-2-----0-----0------|

d |-----------------------------------------------------|
a |-----------------------------------------------------|
f |-----------------------------------------------------|
c |------------------8-7---7-5---5-7------------------2-|
g |------------------8-7---7-5---5-7------------------2-|
c |-0-2-3-5-3-2-0-2--8-7-0-7-5-0-5-7--0-2-3-5-3-2-0-2---|

d |--------------------------------------------------|
a |--------------------------------------------------|
f |---------------------------5-5---------2-2--------|
c |-0-------------------7-5-3-3-3-7--5-7--2-2-7--5-7-| x3
g |-0-0-3-5--5-7-8--5-8------------------------------|
c |-0------------------------------------------------|

d |----------------------|
a |----------------------|
f |-33333333335555555555-|
c |-33333333335555555555-|
g |-11111111113333333333-|
c |----------------------|

d |--------------------------------------------------|
a |--------------------------------------------------|
f |---------------------------5-5---------2-2--------|
c |-0-------------------7-5-3-3-3-7--5-7--2-2-7--5-7-| x3
g |-0-0-3-5--5-7-8--5-8------------------------------|
c |-0------------------------------------------------|

d |--------------------------|
a |--------------------------|
f |-3333333333555555---------|
c |-3333333333555555---------|
g |-1111111111333333---------|
c |------------------0-0-0-0-|

           BOOM YOUR DONE!
Tap to rate this tab
# A B C D E F G H I J K L M N O P Q R S T U V W X Y Z