Song name
# A B C D E F G H I J K L M N O P Q R S T U V W X Y Z

Diecast - Labled Unity tab

Band: Diecast
Song: Labled Unity

Tabber: John Cukras
Email: riffreaper@yahoo.com

Tuning: C G C F A D

Riff 1:
D---------------------------------------|
A---------------------------------------|
F---------------------------------------|
C----10/9-10/8--------------------------|
G-0--8/-7-8/-6------------------------0-|
C-0-------------00-00-00-0000- x's 4--0-|
pm              .. .. .. ....

Riff 2:
D-----------------------------|
A-----------------------------|
F-----------------------------|
C-----9/10/9-5-4-7-5/7--------|
G-----7/8-/7-3-2-5-3/5--------|
C-00------------------ x's 10-|
pm..

Riff 1

Riff 2

Riff 1

Riff 3:
D--------------------------------------------|
A--------------------------------------------|
F--------------------------------------------|
C--------------------------------------------|
G-0---1-1--1-0000000---3-5-3--7----7---------|
C-0---1-1--1-0000000---3-5-3--7-00-7  x's 16-|
pm           .......            ..

Riff 1

Riff 2

Riff 1 once
Tap to rate this tab
 
# A B C D E F G H I J K L M N O P Q R S T U V W X Y Z