Song name
# A B C D E F G H I J K L M N O P Q R S T U V W X Y Z

Diecast - Pre-final Word Jam tab

Band: Diecast
song: Pre-Final Word Jam

tabber: John Cukras
email: riffreaper@yahoo.com

tuning: Drop C

Riff 1:
D--------------------------------|
A--------------------------------|
F--------------------------------|
C-----7/9---5/7------------------|
G-----5/7---3/5-----7-9-7--------|
C-000-----0-----000-7-9-7 x's 12-|
pm...     .     ...

Riff 2:
D--------------------------|
A--------------------------|
F--------------------------|
C--------------------------|
G--------------------------|
C-77777777777-6-5-4  x's 8-|
pm........... . . .

Riff 3:
D-----------------------------------------|
A-----------------------------------------|
F-----------------------------------------|
C-----------------------------------------|
G-3-4-3-2-7-7--3-4-3-2-7-8-7-6-5-5--------|
C-3-4-3-2-7-7--3-4-3-2-7-8-7-6-5-5  x's 4-|
Tap to rate this tab
 
# A B C D E F G H I J K L M N O P Q R S T U V W X Y Z