Song name
# A B C D E F G H I J K L M N O P Q R S T U V W X Y Z

Diecast - To Thine Self tab

Band: Diecast
song: To Thine Self

Tabber: John Cukras
email: riffreaper@yahoo.com

Tuning: Drop C

Riff 1:
D------------------------------|
A------------------------------|
F------------------------------|
C-7----7----7----7----88-------|
G-5----5----5----5----66-------|
C---00---00---00---00--- x's 8-|
pm  ..   ..   ..   ..

Riff 2:
D------------------------------------------------|
A------------------------------------------------|
F------------------------------------------------|
C------------------------------------------------|
G-----------------------00-9-8-5-6-5-8-7-8-------|
C-00-9-8-5-6-5-8-7-8----00-9-8-5-6-5-8-7-8 x's 8-|
pm                      ..

Riff 1 x's 4

Riff 2

Riff 3:
D---------------------------------------------------------------------------------------|
A---------------------------------------------------------------------------------------|
F---------------------------------------------------------------------------------------|
C-----------------3-33-3/8/7-6/7-4/6----8--3-33-3/8/7-6/7-4/6---------------------------|
G-1-2-0-1-2-3-0---1-11-1/6/5-4/5-2/4----6--1-11-1/6/5-4/5-2/4-0-0-0---------0--0--0-----|
C-1-2-0-1-2-3-0----------------------00-----------------------0-0-0  x's 6--0--0--0--1~-|
pm. .   . . .                        ..                       . . .

Riff 2

Riff 1 (fast) x's 4

End:
D--------------------|
A--------------------|
F--------------------|
C--------------------|
G--------------------|
C-00-9-8-5-6-5-8-7-8-|
Tap to rate this tab
 
# A B C D E F G H I J K L M N O P Q R S T U V W X Y Z