Song name
# A B C D E F G H I J K L M N O P Q R S T U V W X Y Z

Diego De Cossio - El Espantapajaros Azul tab

-------------------------------------------------------------------------------
			     El Espantapajaros Azul - Diego de Cossio
-------------------------------------------------------------------------------
Tabbed by: MilDosmil
Email:
Artist's Website: http://diegodecossio.tripod.com/
Tuning: EADGBe

e|-12--------------12-10-10-9----12--10-10-9----12---------------------------|
B|----14-----12-14------------12------------12------10-12-10-9---------------|
G|--------14-----------------------------------------------------------------|
D|---------------------------------------------------------------------------|
A|---------------------------------------------------------------------------|
E|---------------------------------------------------------------------------|

e|-12--------------12-10-10-9----12------------------------------------------|
B|----14-----12-14------------12----12----------------12-15-14---------------|
G|--------14---------------------------13----------13------------------------|
D|----------------------------------------14-11-14---------------------------|
A|---------------------------------------------------------------------------|
E|---------------------------------------------------------------------------|

Tap to rate this tab
# A B C D E F G H I J K L M N O P Q R S T U V W X Y Z