Song name
# A B C D E F G H I J K L M N O P Q R S T U V W X Y Z

Diego Torres - Perdidos En La Noche tab

Aquí tienen esta hermosa canción, ya la había sacado hace mucho
pero tenia q hacerle algunas correcciones para poder tabularla.

Intro: (esto se toca en el intro y en los primeros versos)
       
       A - A/B       A/B - Am     E/F# - ESus4  F#m7  
e|----------------|-------------|-------------|--------0------|
B|----------------|-------------|------0-1-2--|---------1-2-4-|
G|----2--4---2-4--|---1-4--1-2--|-------2-----|-----2---------|
D|---2-----2------|--2---2------|----2--------|---2-2---------|
A|--0-------------|-0-----------|---2---------|-4-------------|
E|----------------|-------------|--2----------|-2-------------|

Verso:
  
Te busqué    te gritaba y en mi lamento  y en cada noche me soñaba entre tu piel
e|----------------------|-----------------|-------------------|--------------0-------|
b|----------------------|-----------------|---------0--1-2----|----------------1-2-4-|
G|---------2--4---2-4---|-----1--4--1-2---|-----------2-------|-----------2----------|
D|--------2-----2-------|----2----2-------|-------2-----------|---------2-2----------|
A|-------0--------------|---0-------------|------2------------|------4---------------|
E|----------------------|-----------------|-----2-------------|------2---------------|

Y te inventé y eras suave como el viento y a tu cuerpo yo veia enloquecer
e|----------------------|-----------------|-------------------|--------------0-------|
b|----------------------|-----------------|---------0--1-2----|----------------1-2-4-|
G|---------2--4---2-4---|-----1--4--1-2---|-----------2-------|-----------2----------|
D|--------2-----2-------|----2----2-------|-------2-----------|---------2-2----------|
A|-------0--------------|---0-------------|------2------------|------4---------------|
E|----------------------|-----------------|-----2-------------|------2---------------|

Y al fin te tengo para quererte para adorarte para seguir por siempre 
  e|--------------------|-----------------|-------------------|
  b|--------------------|-----------------|------0--1-2-------|
  G|-------2--4---2-4---|-----1--4--1-2---|--------2------2---|
  D|------2-----2-------|----2----2-------|----2----------2---|
  A|-----0--------------|---0-------------|---2-----------4---|
  E|--------------------|-----------------|--2------------2---|



Coro:
     A                                     
Perdidos en la noche 
  E                    D
ocultos en la bruma viviendo esta locura 
    F#m7                 D                                   
muriendo d ternura tu y yo 
           A             E
no habrán reproches q t llenen d amargura 
       F#m7
no habrá mas que una lluvia 
      D                        F#m7
de besos que se siembran en tu piel
     A                               E
tu amor me das (tu amor me das) y te amo (y te amo mas)
            F#m7                      D
bajo este cielo que nos cubre con su manto d silencio
    A                     E
es tan inmenso lo que yo siento 
           F#m7                D/A
cuando me juras que serás para mi.


Verso:

Yo te extrañaba era grande mi tormento y en mi miente yo creí volverte a ver
e|----------------------|-----------------|-------------------|--------------0-------|
b|----------------------|-----------------|---------0--1-2----|----------------1-2-4-|
G|---------2--4---2-4---|-----1--4--1-2---|-----------2-------|-----------2----------|
D|--------2-----2-------|----2----2-------|-------2-----------|---------2-2----------|
A|-------0--------------|---0-------------|------2------------|------4---------------|
E|----------------------|-----------------|-----2-------------|------2---------------|

esperaba junto al mar donde consolaba el tiempo me moría por llegarte a enamorar
e|----------------------|-----------------|-------------------|--------------0-------|
b|----------------------|-----------------|---------0--1-2----|----------------1-2-4-|
G|---------2--4---2-4---|-----1--4--1-2---|-----------2-------|-----------2----------|
D|--------2-----2-------|----2----2-------|-------2-----------|---------2-2----------|
A|-------0--------------|---0-------------|------2------------|------4---------------|
E|----------------------|-----------------|-----2-------------|------2---------------|

y al fin te tengo para quererte para adorarte para seguir por siempre
  e|--------------------|-----------------|-------------------|
  b|--------------------|-----------------|------0--1-2-------|
  G|-------2--4---2-4---|-----1--4--1-2---|--------2------2---|
  D|------2-----2-------|----2----2-------|----2----------2---|
  A|-----0--------------|---0-------------|---2-----------4---|
  E|--------------------|-----------------|--2------------2---|

Coro:
     A                                     
Perdidos en la noche 
  E                    D
ocultos en la bruma viviendo esta locura 
    F#m7                 D                                   
muriendo d ternura tu y yo 
           A             E
no habrán reproches q t llenen d amargura 
       F#m7
no habrá mas que una lluvia 
      D                        F#m7
de besos que se siembran en tu piel
     A                               E
tu amor me das (tu amor me das) y te amo (y te amo mas)
            F#m7                      D
bajo este cielo que nos cubre con su manto d silencio
    A                     E
es tan inmenso lo que yo siento 
           F#m7                D/E
cuando me juras que serás para mi.


Instrumental:  A - E - F#m7 - D - A - E  - F#m7 - Bm - A 

     D               A      E
Ay! Ay ! Ay! como me gusta tenerte
      D         A        E                   D
Dos corazones unidos queriéndose hasta la muerte (x2)

        A                  D               A     E 
Que lindo es verme en tus ojos cuando me siento perdido
          D           A         E               A
yo solo quiero tus besos tus besos que son mi abrigo

  
     D                A        E
Ay! Ay ! Ay! como me gusta tenerte
      D          A       E                   D
dos corazones unidos queriéndose hasta la muerte (x2)


                A             D            E          A
Hay tu me has rescatado del olvido y me llenaste de esperanza
    D                    A              E           F#m7
que si por ti me siento vivo que si por ti nació la calma.



Bueno aquí lo tienen, si desean otra  de Diego Torres no duden en escribirme.
Esta canción me recuerda a una persona q quiero mucho y que siempre que ella 
escucha esta canción recuerda los momentos lindos que pasamos juntos.
Pata ti N......!!! TQM

Tap to rate this tab
# A B C D E F G H I J K L M N O P Q R S T U V W X Y Z