Song name
# A B C D E F G H I J K L M N O P Q R S T U V W X Y Z

Dierks Bentley - Good Things Happen tab

"Good Things Happen"
Dierks Bentley
CD: Modern Day Drifter
Track 6

Tabbed by Neil Crane

Capo 3rd fret


intro
G          D          Am    C       D       G
---3/5-5/7--------------------------------------|
-3---------7-7-8-10\7-5---3/5-5-7/8-------------|
------------------------------------7-7\5-5-5\4-|
------------------------------------------------|
------------------------------------------------|
------------------------------------------------|

G             D                Am
 The world is cold but I don't care
C              D              G
 When you have flowers in you hair
G       D                Am
 I see color and I hear sound
C                D                   G
 And good things happen when you're around

G       D                 Am
 I work hard for not much pay
C         D               G
 So I can know you'll be okay
G                 D                Am
 'Cause I need to live where love abounds
C                D                   G
 And good things happen when you're around

             D        Am
So won't you wait for me
        C
I'll be home soon
D        Am
Wait for me
     C         D
I'll only be a day or two

Solo
G        D               Am              C         D       G
-----------------------------(8-7-5-5\3)---------------------------| *main steel guitar is in ()
-------------------------------------------------------------------|
-------------------------------------------------------------------|
-5/7-7/9-7---7-5p4h5-4---------------------2-4-4/5\4---------------|
-----------5-----------5-5/7-------------3-----------9\7-7-7\5-----|
---------------------------------------------------------------5/7-|

G          D          Am              C       D       G
---3/5-5/7--------------(12-10-8-7)----------------------| *main steel guitar is in ()
-3---------7-7-8-10\7-5-------------3/5-5-7/8------------|
--------------------------------------------7-7\5-5-5\4--|
---------------------------------------------------------|
---------------------------------------------------------|
---------------------------------------------------------|

          D        Am
Won't you wait for me
        C
I'll be home soon
D        Am
Wait for me
     C         D
I'll only be a day or two

G             D                Am
 The world is cold but I don't care
C              D              G
 When you have flowers in you hair
G       D                Am
 I see color and I hear sound
C                D                   G    G7
 And good things happen when you're around
C            D                   G
 Good things happen when you're around
Tap to rate this tab
# A B C D E F G H I J K L M N O P Q R S T U V W X Y Z