Song name
# A B C D E F G H I J K L M N O P Q R S T U V W X Y Z

Dierks Bently - Come Alittle Closer tab

Capo 1st Fret: notes are rel to Capo.

e----0---0---0--0--0-----0-0-----|
a---12--12--12--9-10----10-9-----|
d--------------------------------|
g--------------------------------|
b--------------------------------|
E--------------------------------|

e----0---0---0--0--0--0\-|
a---12--12--12--9-10-10\-|
d------------------------|
g------------------------|
b------------------------|
E------------------------|
Tap to rate this tab
# A B C D E F G H I J K L M N O P Q R S T U V W X Y Z