Song name
# A B C D E F G H I J K L M N O P Q R S T U V W X Y Z

Diesel Boy - Rock Anthem tab

Quick and effective song as usual !

Verses
e|--------------|
B|--------------|
G|--5-----------|
D|--5--6--8--8--|
A|--3--6--8--8--|
E|-----4--6--6--|
 
Chorus
e|------------|------------|------------|----------------------------------|
B|------------|------------|------------|----------------------------------|
G|-8-----5----|-8-----5----|-8-----5----|-----------------------------8----|
D|-8--8--5--6-|-8--8--5--6-|-8--8--5--6-|-8--8--6--6--8--8--6--6--8---8--8-|
A|-6--8--3--6-|-6--8--3--6-|-6--8--3--6-|-8--8--6--6--8--8--6--6--8---6--8-|
E|----6-----4-|----6-----4-|----6-----4-|-6--6--4--4--6--6--4--4--6------6-|
 

I'm sure you'll be able to figure out the rythm and patern by yourself.

Keep Rocking !
Tap to rate this tab
# A B C D E F G H I J K L M N O P Q R S T U V W X Y Z