Song name
# A B C D E F G H I J K L M N O P Q R S T U V W X Y Z

Different Strokes - Break-up Song Acoustic tab

Help us improve GuitareTab! Take a short survey!
:::The Break-up Song:::
By Different Strokes


I might be the only guy in the world that has heard of Different Strokes. And honestly,
this is the only song I've heard from them. This song is pretty easy and fun to play, but
I could only make out the intro and bits of the song. This tab was seriously the best I
could do for this song right now. If anyone else on UG has heard this song, i would
really really appreciate your feedback and help to figure out the whole song.

Intro/Verse 1

e|------------------------------------------------------------|
B|------------------------------------------------------------|
G|------------------------------------------------------------|
D|------------------------------------------------------------|     (repeat)
A|-------6-----6-7--------6-----6-7--------2-----2-0----------|
E|---7-7---7-7--------4-4---4-4--------0-0---0-0--------------|

I called you on the phone
And you said that something's wrong
I can feel it in your voice,
I can hear it in your tongue
You said it's just not working out
It's just not working out...


Bridge

e|-----0------------------------------------------------------|
B|-----0------------------------------------------------------|
G|-----4------------------------------------------------------|
D|-----4------------------------------------------------------|     (x2)
A|-----2--------6-7-----6h7p6-------1-1-----1h2p1-------------|
E|-----0-----7-7----7-7----------2-2-----2-2------------------|

I'll be crying when you go away (x2)


Verse 2

e|------------------------------------------------------------|
B|------------------------------------------------------------|
G|------------------------------------------------------------|
D|------------------------------------------------------------|   (repeat)
A|-------6-----6-7--------6-----6-7--------2-----2-0----------|
E|---7-7---7-7--------4-4---4-4--------0-0---0-0--------------|

You said it wasn't me
You just said you couldn't see
Getting back with me again
So I guess this is the end
You asked if we could just be friends
Let's just be friends...


Bridge

e|-----0------------------------------------------------------|
B|-----0------------------------------------------------------|
G|-----4------------------------------------------------------|
D|-----4------------------------------------------------------|     (x2)
A|-----2--------6-7-----6h7p6-------1-1-----1h2p1-------------|
E|-----0-----7-7----7-7----------2-2-----2-2------------------|

I'll be crying when you go away (x2)

============================================================================
...That's all I have for right now, i haven't figured out the second part of the song,
if anyone has any idea, i would really REALLY appreciate it.
---Peace™
Related for Break-up Song Acoustic tab