Song name
# A B C D E F G H I J K L M N O P Q R S T U V W X Y Z

Difuntos Correa - Arrepentido tab

r = REPETIR ESA NOTA HASTA QUE LLEGUE LA SIGUIENTE.

COMIENZO (GUITARRAS CON EFECTOS)

e----------------------------------------------------------|
B----------------------------------------------------------|
G----------------------------------------------------------|
D----------------------------------------------------------|
A---9-9---9-9s5---9-9---9-9s5---4-4---4-4---9-9---9-9------|
E---7-7---7-7s3---7-7---7-7s3---2-2---2-2---7-7---7-7------|


INTRO INSTRUMENTAL

GUITARRA 2

e----------------------------------------------------------|
B----------------------------------------------------------|
G--------2-2s4-2------2-2s4--------------------------------|
D---4r-----------4r---------2r-----------------2—4r--------|
A-------------------------------5-4s5s4--4-4-5-------------|
E----------------------------------------------------------|

LA GUITARRA 1 HACE LOS ACORDES DEL COMIENZO DURANTE LA INTRO.


ESTROFA

GUITARRA 1 (sin distorsión)

e----------------------------------------------------------|
B----------------------------------------------------------|
G----------------------------------------------------------|
D-------11---------11-------11--------7--------------------|
A-----9----9-----9----9---9----9----5---5------------------|
E---7---------7----------7--------3------------------------|


e----------------------------------------------------------|
B----------------------------------------------------------|
G----------------------------------------------------------|
D-------11---------11-------11--------7--------------------|
A-----9----9-----9----9---9----9----5---5------------------|
E---7---------7----------7--------3------------------------|


e----------------------------------------------------------|
B----------------------------------------------------------|
G----------------------------------------------------------|
D-------4--------4--------4--------4-----------------------|
A-----4---4----4---4----4---4----4---4---------------------|
E---2--------2--------2--------2---------------------------|


e----------------------------------------------------------|
B----------------------------------------------------------|
G----------------------------------------------------------|
D-------11---------11-------11--------11-------------------|
A-----9----9-----9----9---9----9----9----5-----------------|
E---7---------7----------7--------7------------------------|


GUITARRA 2 (sin distorsión)

Las notas se tocan sobre el último acorde de cada compás.

e----------------------------------------------------------|
B----------------------------------------------------------|
G-------------------------------------------2---2----------|
D---------------------------------------------4---2-2s4----|
A----------------------------------------------------------|
E----------------------------------------------------------|


e----------------------------------------------------------|
B----------------------------------------------------------|
G-------------------------------------------2---2----------|
D---------------------------------------------4------------|
A-------------------------------------------------5-5s4----|
E----------------------------------------------------------|


e----------------------------------------------------------|
B----------------------------------------------------------|
G----------------------------------------------------------|
D-------------------------------------------------2-2-4----|
A--------------------------------------------4-5-----------|
E----------------------------------------------------------|


e----------------------------------------------------------|
B----------------------------------------------------------|
G-------------------------------------------------2--------|
D---------------------------------------------------2-2s4--|
A----------------------------------------------------------|
E----------------------------------------------------------|

Esto se repite en la primera estrofa,
en la segunda solo se toca una vez.


ESTRIBILLO (desde que empieza la distorsión)
Las notas entre paréntesis son solo de la guitarra 2.

e----------------------------------------------------------|
B----------------------------------------------------------|
G----------------------------------------------------------|
D----------------------------------------------------------|
A----5-5---9-9---9-9s5---9-9---9-9s5---4-4-4-4-4-4-4-4-4---|
E----3-3---7-7---7-7s3---7-7---7-7s3---2-2-2-2-2-2-2-2-2---|


e----------------------------------------------------------|
B----------------------------------------------------------|
G----------------------------------------------------------|
D---------------------------(11-11s12s11-9)----------------|
A---9-9---9-9------5------9----------------7------5--------|
E---7-7---7-7------3------7----------------5------3--------|


e----------------------------------------------------------|
B----------------------------------------------------------|
G----------------------------------------------------------|
D------------(7-9-11-11s12-11)-----------------------------|
A---5------9-------------------7------5--------------------|
E---3------7-------------------5------3--------------------|


SOLO (la guitarra 1 sigue haciendo los acordes de la intro)

e----------------------------------------------------------|
B----------------------------------------------------------|
G----------------------------------------------------------|
D------------7-9-7----------7-9-7—-2r----------------2-4---|
A---9r---9r----------9r—-9r-----------5-4s5s4--4-4-5-------|
E----------------------------------------------------------|


e----------------------------------------------------------|
B----------------------------------------------------------|
G----------------------------------------------------------|
D---11-12s11-12s11-12s11-12s11-----------------------------|
A----------------------------------------------------------|
E----------------------------------------------------------|


FINAL  (SOLO GUITARRA SIN DISTORSIÓN)

e----------------------------------------------------------|
B----------------------------------------------------------|
G----------------------------------------------------------|
D----------11---------11---------7-------------------------|
A--------9-----9----9----9-----5---5-----------------------|
E-----7-----------7----------3-----------------------------|


e----------------------------------------------------------|
B----------------------------------------------------------|
G------------------------------------------2---------------|
D----------11---------11---------7-------------------------|
A-------9-----9-----9----9-----5---5-----4-----------------|
E-----7-----------7----------3---------2-------------------|

SI ALGUIEN TIENE ALGUN PROBLEMA O QUIERE COMENTARME ALGO DE LA TABLATURA
(DUDAS, MEJORAS…) QUE HABLE CONMIGO EN MI DIRECCIÓN.
PABLOPONCE_FREEDOMIA@HOTMAIL.COM                  -------------------
Tap to rate this tab
# A B C D E F G H I J K L M N O P Q R S T U V W X Y Z