Song name
# A B C D E F G H I J K L M N O P Q R S T U V W X Y Z

Digitalism - Just Gazin tab

DIGITALISM - JUST GAZIN'

Welcome to my first guitar tab.

http://www.youtube.com/watch?v=_6uCTlhv1OI

Tune low E to F

Very simply raise the Low E to the same sound as your 4th string (3rd fret) F.
That would mean raising it 1/2 a tone.

e|----------------------------------------------------------------------------------|
b|-5------5------5------5-------5---------8------8------8------8------8-------------|
g|---6------6------6------6-------6---6-----9------9------9------9------9-----9-----|
d|-----7------7------7------7-------7--------9-------9------10-----10-----10--------|
a|-0------0------0------0-------0---------7------7----------------------------------|
f|------------------------------------------------------7------7------7-------------|

-------------------------------------------------------------------------------------|
-8---------8--------8-------8-------8---------10-------10-------10--------10---------|
---11--------11-------9-------9-------9----9-----10-------10-------10-------10-------|
------12--------12------10------10------10----------10-------10-------10-------12----|
--------------------0-------0-------0------------------------------------------------|
-9---------9----------------------------------0--------0--------0---------0----------|

----------------------------------------------------------------|
10-----------10-------10-------10------10---10--8---------------|
---------10-----9--------9--------7-------7-------7-------------|
------12----------10-------10----------10---10------10-10-------|
----------------------------------------------------------------|
0------------0--------0--------0-------0--------0---------------|
Tap to rate this tab
# A B C D E F G H I J K L M N O P Q R S T U V W X Y Z