Song name
# A B C D E F G H I J K L M N O P Q R S T U V W X Y Z

Diiv - Doused tab

DIIV - Doused

www.facebook.com/diivnyc

Tabbed by Isaac Murguia, June 2012.

INTRO: (x2 except 1st part only once)
                     (x6)
e|--------------|-------------|-------------------------|
B|--------------|-------------|----------------13----13-|
G|-12-----12----|-12-12-12-12-|-10-10-10-10-10----10----|
D|-----10----10-|-------------|-------------------------|
A|--------------|-------------|-------------------------|
E|--------------|-------------|-------------------------|

CHORUS: (x4)
e|-----------------------|-------------------|-------------------------|----------------------|
B|-13-13-----------------|-------------------|-13-13-------------------|----------------------|
G|-------12-12-10-10-12--|-12-12-10-10-12-12-|-------12-12-10-10-12-12-|-13-13-12-12-10-10-12-|
D|-----------------------|-------------------|-------------------------|----------------------|
A|-----------------------|-------------------|-------------------------|----------------------|
E|-----------------------|-------------------|-------------------------|----------------------|

VERSE: (x4)
e|-----------------------------------------|
B|-----------------------------------------|
G|-5555-5555-5555-5--------------------555-|
D|-----------------666-5555-5555-3333-3----|
A|-----------------------------------------|
E|-----------------------------------------|

Repeat CHORUS
Repeat VERSE; VERSE ENDING:
e|-----------------------------------------|
B|-----------------------------------------|
G|-5555-5555-5555-5--------------88888888\-|
D|-----------------666-5555-5555-----------|
A|-----------------------------------------|
E|-----------------------------------------|

BRIDGE:
e|---------------|-------------------------|-------------|
B|---------------|-------------------------|----------13-|
G|-8-------------|----------8-8--888-10-10-|-10-12-12----|
D|---10--8-10-10-|-10-10-10----------------|-------------|
A|---------------|-------------------------|-------------|
E|---------------|-------------------------|-------------|

Repeat CHORUS

BRIDGE 2:
   just listen for rhythm, you'll know how to play it.
e|-------------------------------|
B|-------------------------------|
G|-0---0-0---0---0---0---0---0---|
D|---5-----5---5---5---5---5---5-|
A|-------------------------------|
E|-------------------------------|

SOLO: (x4)
e|-----------------------------|--------------------------------------|
B|-----------------------------|--------------------------------------|
G|--------------------8-7------|--------------------------------------|
D|-8h10-8h10-10-10-10-----10-8-|-8h10-8h10-10-10-10-------------------|
A|-----------------------------|--------------------11-11-11-10-10-10-|
E|-----------------------------|--------------------------------------|

Repeat CHORUS

END.
Tap to rate this tab
 
# A B C D E F G H I J K L M N O P Q R S T U V W X Y Z