Song name
# A B C D E F G H I J K L M N O P Q R S T U V W X Y Z

Diiv - Bambi Slaughter tab

DIIV - Bambi Slaughter (Kurt Cobain cover)
B-side from the Geist 7" (captured tracks 2012).

Tabbed by Isaac Murguia, June 2012.

     (intro)                 (verse)                  1st end      2nd end before chorus
e|-----------------|---------------------------------|-----------|----------------|
B|-----------------|---------------------------------|-----------|----------------|
G|---9---9---9---9-|-9999-9999-10-10-10-10-9999-9999-|-7777-7777-|-7777-----------|
D|-9---9---9---9---|---------------------------------|-----------|------10-10-9-9-|
A|-----------------|---------------------------------|-----------|----------------|
E|-----------------|---------------------------------|-----------|----------------|

chorus
      x2            x2           x2
e|-------------|-------------|-------------|-----------------|
B|-------------|-------------|-------------|-----------------|
G|-12-12-12-12-|-11-11-11-11-|-10-10-10-10-|-9-9-9-9-9-9-9-9-|
D|-------------|-------------|-------------|-----------------|
A|-------------|-------------|-------------|-----------------|
E|-------------|-------------|-------------|-----------------|

outro
e|-----------------------------|---------------------------|
B|-----------------------------|--------------------12--12-|
G|-9999-(x3)-10-10-10-12--12-9-|-9999-9999--10--10---------|
D|-----------------------------|---------------------------|
A|-----------------------------|---------------------------|
E|-----------------------------|---------------------------|
Tap to rate this tab
# A B C D E F G H I J K L M N O P Q R S T U V W X Y Z