Song name
# A B C D E F G H I J K L M N O P Q R S T U V W X Y Z

Diiv - Druun tab

DIIV - (Druun)
From the album Oshin (captured tracks 2012).

Tabbed by Isaac Murguia, June 2012.
This is the best I could do.
I'm open to suggestions!

     (x14)               (x18)               (x16)
e|----0-0-----|-12-------12----12-------|-0--0--0--0--|
B|-5--0-0--55-|----10-10----10----10-10-|-10-10-10-10-|
G|-6-------66-|-------------------------|-9--9--9--9--|
D|-7-------77-|-------------------------|-0--0--0--0--|
A|-0-------00-|-------------------------|-------------|
E|------------|-------------------------|-------------|

          (x2)                  (x16)
e|-14-12----------12-------|-------------|
B|-------14-12-------14-14-|-------------|
G|-------------14----------|-14-14-14-14-|
D|-------------------------|-------------|
A|-------------------------|-12-12-12-12-|
E|-------------------------|-------------|

            (x6)
e|------------0-----------|-0--------(0)----|
B|----2----2----2---2---2-|-2---------------|
G|-4-----4--------4-------|-4-----------(4)-|
D|------------------------|-0---------------|
A|------------------------|-----------------|
E|------------------------|-----------------| end.
Tap to rate this tab
 
# A B C D E F G H I J K L M N O P Q R S T U V W X Y Z