Song name
# A B C D E F G H I J K L M N O P Q R S T U V W X Y Z

Diiv - Corvalis tab

DIIV - Corvalis
B-side from the Sometime 7" (captured tracks 2011).

Tabbed by Isaac Murguia, June 2012.

INTRO:
           x4                   x1
e|----------------------|------------------|
B|-----------------33/5-|------------------|
G|-444-444-4-\2222------|-444-444-4-\2222/-|
D|----------------------|------------------|
A|----------------------|------------------|
E|----------------------|------------------|

CHORUS: (x2)
e|-------|--------------------------------------------|
B|-12-12-|-12-12-10-10-------------10-10-10--------10-|
G|-------|-------------9-9-9-11-11----------9--11-----|
D|-------|--------------------------------------------|
A|-------|--------------------------------------------|
E|-------|--------------------------------------------|

e|----------------------------------------------|
B|-12-12-10-10-------------10-10-10-------------|
G|-------------9-9-9-11-11----------------------|
D|----------------------------------12-12-12-11-|
A|----------------------------------------------|
E|----------------------------------------------|

VERSE:
           x3                   x1
e|----------------------|------------------|
B|-----------------33/5-|------------------|
G|-444-444-4-\2222------|-444-444-4-\2222/-|
D|----------------------|------------------|
A|----------------------|------------------|
E|----------------------|------------------|

CHORUS

BRIDGE:
e|----------12-14-17--14-12----|----------12-14-19--17-14----|    |------|
B|-12-14-15--------------------|-12-14-15-----------------15-|    |-14---|
G|--------------------------14-|-----------------------------| x2 |------|
D|-----------------------------|-----------------------------|    |------|
A|-----------------------------|-----------------------------|    |------|
E|-----------------------------|-----------------------------|    |------|

VERSE x8

END NOTE:
e|---------------------------|
B|---------------------------|
G|-4-------------------------|
D|---------------------------|
A|---------------------------|
E|---------------------------|
Tap to rate this tab
# A B C D E F G H I J K L M N O P Q R S T U V W X Y Z