Song name
# A B C D E F G H I J K L M N O P Q R S T U V W X Y Z

Diiv - Home tab

DIIV - Home
From the album Oshin (captured tracks 2012).

Tabbed by Isaac Murguia, June 2012.

INTRO:
             (x4)
e|-15-12----12----12---------|-15-12---------|
B|-------15----15----13---13-|---------------|
G|---------------------------|---------------|
D|---------------------------|---------------|
A|---------------------------|---------------|
E|---------------------------|---------------|

VERSE:                                               (A)
e|-------------------------------------|-------------------------------------|
B|-10-10-10-10-8-8-8-8-----------------|-10-10-10-10-8-8-8-8-----------------|
G|---------------------9-9-9-9-9-9-9-9-|---------------------9-9-9-9-7-7-7-7-|
D|-------------------------------------|-------------------------------------|
A|-------------------------------------|-------------------------------------|
E|-------------------------------------|-------------------------------------|
                                                     (B)
e|-------------------------------------|-------------------------------------|
B|-10-10-10-10-8-8-8-8-----------------|-10-10-10-10-8-8-8-8-----------------|
G|---------------------9-9-9-9-9-9-9-9-|---------------------9-9-9-9-7-7-5-5-|
D|-------------------------------------|-------------------------------------|
A|-------------------------------------|-------------------------------------|
E|-------------------------------------|-------------------------------------|

CHORUS:
e|---------------------|--------------------------|-----------------------------------------------|
B|-----------8---------|-----------8--------------|-----------8-----10--8-------8-----10--8-------|
G|--------7-----9----7-|--------7-----9--9--7-----|--------7-----9---------7h9-----9---------7--9-|
D|-9--10---------------|-9--10-----------------10-|-9--10-----------------------------------------|
A|---------------------|--------------------------|-----------------------------------------------|
E|---------------------|--------------------------|-----------------------------------------------|

Repeat VERSE, but "(A)" is now:
e|-------------------------------------|
B|-10-10-10-10-8-8-8-8-----------------|
G|---------------------9-9-9-9-9-7-7-7-|
D|-------------------------------------|
A|-------------------------------------|
E|-------------------------------------|

Then after "(B)" this is the last note:
e|----------------------------------------|
B|----------------------------------------|
G|-5--------------------------------------|
D|----------------------------------------|
A|----------------------------------------|
E|----------------------------------------|
Tap to rate this tab
# A B C D E F G H I J K L M N O P Q R S T U V W X Y Z