Song name
# A B C D E F G H I J K L M N O P Q R S T U V W X Y Z

Diiv - Oshin Subsume tab

DIIV - Oshin (Subsume)
From the album Oshin (captured tracks 2012).

Tabbed by Isaac Murguia, June 2012.

RIFF A:
e|-----------------------0-|
B|------0-------------0----|
G|---11----11------11------|
D|-9-------------9---------| (x8)
A|-------------------------|
E|-------------------------|

RIFF B-1:
e|-------------------------|--------------------9-|-------------------------|--------------------|
B|-------------------------|--------------10-12---|-------------------------|--------------------|
G|-11-11-11-11-11-11-11-11-|-9-9-9-9-9-11---------|-11-11-11-11-11-11-11-11-|-9-9-9-9-9-11-11-11-|
D|-------------------------|----------------------|-------------------------|--------------------|
A|-------------------------|----------------------|-------------------------|--------------------|
E|-------------------------|----------------------|-------------------------|--------------------|

e|-----------------|-----------------|-----------------|-----------------|
B|-----------------|-----------------|-----------------|-----------------|
G|-7-7-7-7-7-7-7-7-|-----------------|-----------------|-----------------|
D|-----------------|-9-9-9-9-7-7-7-7-|-9-9-9-9-9-9-9-9-|-9-9-9-9-9-9-9-9-|
A|-----------------|-----------------|-----------------|-----------------|
E|-----------------|-----------------|-----------------|-----------------|

RIFF B-2:
e|-------------------------|--------------------9-|-------------------------|--------------------|
B|-------------------------|--------------10-12---|-------------------------|--------------------|
G|-11-11-11-11-11-11-11-11-|-9-9-9-9-9-11---------|-11-11-11-11-11-11-11-11-|-9-9-9-9-9-11-11-11-|
D|-------------------------|----------------------|-------------------------|--------------------|
A|-------------------------|----------------------|-------------------------|--------------------|
E|-------------------------|----------------------|-------------------------|--------------------|

e|-------------------------|-----------------|-----------------|-----------------|
B|-------------------------|-----------------|-----------------|-----------------|
G|-11-11-11-11-11-11-11-11-|-9-9-9-9-7-7-----|-----------------|-----------------|
D|-------------------------|-------------7-7-|-9-9-9-9-9-9-9-9-|-9-9-9-9-9-9-9-9-|
A|-------------------------|-----------------|-----------------|-----------------|
E|-------------------------|-----------------|-----------------|-----------------|

(verse)

RIFF A (x4)
RIFF B-2
RIFF B-1
RIFF B-2
RIFF A (x10)
RIFF B-2

End.
Tap to rate this tab
 
# A B C D E F G H I J K L M N O P Q R S T U V W X Y Z