Song name
# A B C D E F G H I J K L M N O P Q R S T U V W X Y Z

Diiv - Sometime tab

DIIV - Sometime
From the album Oshin (captured tracks 2012).

Tabbed by Isaac Murguia, June 2012.
YouTube: Goadiroth

INTRO: (x2)
                    1.                2.
e|-----------------|-----------------|----------12121212121212-|
B|-----------------|-----------------|-------------------------|
G|-55555-7---------|-55555-7-----999-|-55555-7-----------------|
D|---------777-555-|---------777-----|-------------------------|
A|-----------------|-----------------|-------------------------|
E|-----------------|-----------------|-------------------------|

CHORUS: (x4)
e|-12-------------------------------|-12---------------------|
B|----15-13-13-13--15------------13-|----15-13-13-13--15-----|
G|---------------------14--12h14----|---------------------14-|
D|----------------------------------|------------------------|
A|----------------------------------|------------------------|
E|----------------------------------|------------------------|

  1.          2.          3.          4.
e|-13-13-13--|-15-15-15--|-13-13-13--|-15-15-15-15-15-15\-|
B|-----------|-----------|-----------|--------------------|
G|-----------|-----------|-----------|--------------------|
D|-----------|-----------|-----------|--------------------|
A|-----------|-----------|-----------|--------------------|
E|-----------|-----------|-----------|--------------------|

VERSE:
   (A) x1                (B) x4
e|-8888-88-|-88-77-------------------------------|
B|---------|-------88-10----------------88-------| 4th time
G|---------|--------------9999--9999-77-----9797-| exclude "9797"
D|---------|-------------------------------------|
A|---------|-------------------------------------|
E|---------|-------------------------------------|

INTRO
CHORUS
VERSE
INTRO
CHORUS

End.
Tap to rate this tab
# A B C D E F G H I J K L M N O P Q R S T U V W X Y Z