Song name
# A B C D E F G H I J K L M N O P Q R S T U V W X Y Z

Diiv - Human tab

DIIV - Human
From the album OSHIN (Captured Tracks 2012).

Tabbed by Isaac Murguia, August 2012.
YouTube: Goadiroth

This is pretty close to how they play it I think. :D

INTRO:
          (x3)
e|--------------------|-----------|
B|---8---8--------8---|---8---8---|
G|---9---7----7-9---9-|---9---7---|
D|-7---7----7---------|-7---7-----|
A|--------------------|-----------|
E|--------------------|-----------|

RIFF I:
                  (x5)      (x5)
e|------------|-----------|-------|---------------------|
B|-8888888----|-8----8----|-10----|-12---12---12--------|
G|----------9-|---99---99-|----99-|---99---99---99-12-9-|
D|------------|-----------|-------|---------------------|
A|------------|-----------|-------|---------------------|

e|----------------------------------------------------|
B|-----------------15-----15-----15-----15-----15-----|
G|-/17-1717171717----1717---1717---1717---1717---1717-|
D|----------------------------------------------------|
A|----------------------------------------------------|
E|----------------------------------------------------|

       (x3)
e|----------------|------------------------------------|
B|----------------|-17-----17-----17-----17-----17-----|
G|-17-17-17-17-17-|---1717---1717---1717---1717---1717-|
D|----------------|------------------------------------|
A|----------------|------------------------------------|
E|----------------|------------------------------------|

e|-----------------------15-15-15-15-17-17-17-|
B|--------------------------------------------|
G|-15-----15-----15---------------------------|
D|---1717---1717---1717-----------------------|
A|--------------------------------------------|
E|--------------------------------------------|

RIFF II:
e|-------------------------------------|
B|-------------------------------------|
G|-------------------------------------|
D|-5/7--7/10-10--10/14-14--12-10-12-10-|
A|-------------------------------------| (x2)
E|-------------------------------------|

e|---------------------|-----------------------------|
B|---------------------|-----------------------------|
G|---------------------|-----------------------------|
D|-7-77-777\5-5\2-2--2-|-/7-7-77-10-10-10-10-/12-12\-|
A|---------------------|-----------------------------|
E|---------------------|-----------------------------|

e|-------------------------------------|----------------------------------------|
B|-------------------------------------|----------------------------------------|
G|-------------------------------------|-------------------------------12-14----|
D|-5/7--7/10-10--10/14-14--12-10-12-10-|-5/7--7/10-10--10/14-14--12-14-------14-|
A|-------------------------------------|----------------------------------------|
E|-------------------------------------|----------------------------------------|

e|----------------------------------|-------------------------------|
B|----------------------------------|-------------------------------|
G|----------------------------------|----------------12121212-------|
D|-14-14-14-14-14-14\12--12\9--9--9-|-/14--14--1414-----------14-12-|
A|----------------------------------|-------------------------------|
E|----------------------------------|-------------------------------|

RIFF III:
e|-------------------------------------|-----------------------------------------|
B|-------------------------------------|-----------------------------------------|
G|-------------------2222-222-5555-555-|-/999-77777----------/999-77777----------|
D|-2222-222-5555-555-------------------|------------5555-555------------5555-555-|
A|-------------------------------------|-----------------------------------------|
E|-------------------------------------|-----------------------------------------|

e|-------------------------------------|------------------------------------------|
B|-------------------------------------|------------------------------------------|
G|-------------------2222-222-5555-555-|-/999-77777----------/999-77777-----9-9-7-|
D|-2222-222-5555-555-------------------|------------5555-555------------555-------|
A|-------------------------------------|------------------------------------------|
E|-------------------------------------|------------------------------------------|

Repeat RIFF II (sounds like he's playing it a little higher...)
Repeat RIFF III
Repeat RIFF 1 (x2)

END NOTE:
e|--------|
B|-17-----|
G|--------|
D|--------|
A|--------|
E|--------|


LYRICS:
sunrise waiting
i knew myself completely
then nothing i've thought
it hasn't said but

youth light fading
i know myself as i was then
birds sounding
each shorter day in

sun tries vainly
to stay lit for another day
melts into the darkness
static state til

young light waves in
drink the heat and climb and twist
fawn looking for a friend to kiss
Tap to rate this tab
 
# A B C D E F G H I J K L M N O P Q R S T U V W X Y Z