Song name
# A B C D E F G H I J K L M N O P Q R S T U V W X Y Z

Diiv - Past Lives tab

-------------------------------------------------------------------------------
                             Past Lives - DIIV
-------------------------------------------------------------------------------
Tabbed by: Sam Sotelo
E-mail: toucansam92@gmail.com

Tuning: Standard

e|---------------------------------------------------------------------------|\
B|--10--8---------------------------10--8------------------------------------| \
G|--------9--10---------------------------9--10------------------------------|  \
D|-----------------12-12-10-12-12-------------------12-12-10-12-12-----------|   \
A|---------------------------------------------------------------------------|    \
E|---------------------------------------------------------------------------|     \
                                                                                    >x2
e|--------------------------------------------------8-8-8-8-8-10-------------|     /
B|--10--8---------------------------10--8------------------------------------|    /
G|--------9--10---------------------------9--10------------------------------|   /
D|-----------------12-12-10-12-12--------------------------------------------|  /
A|---------------------------------------------------------------------------| /
E|---------------------------------------------------------------------------|/

...and hid from it all...

e|--------------------------------------------------8-8-8-8-8-10-------------|
B|--10--8---------------------------10--8------------------------------------|
G|--------9--10---------------------------9--10------------------------------|
D|-----------------12-12-10-12-12--------------------------------------------|
A|---------------------------------------------------------------------------|
E|---------------------------------------------------------------------------|

e|---------------------------------------------------------------------------|\
B|--10--8---------------------------10--8------------------------------------| \
G|--------9--10---------------------------9--10------------------------------|  \
D|-----------------12-12-10-12-12-------------------12-12-10-12-12-----------|   \
A|---------------------------------------------------------------------------|    \
E|---------------------------------------------------------------------------|     \
                                                                                    >x4
e|--------------------------------------------------8-8-8-8-8-10-------------|     /
B|--10--8---------------------------10--8------------------------------------|    /
G|--------9--10---------------------------9--10------------------------------|   /
D|-----------------12-12-10-12-12--------------------------------------------|  /
A|---------------------------------------------------------------------------| /
E|---------------------------------------------------------------------------|/

e|---------------------------------------------------------------------8-----|\
B|--8-88-88-88-88-------------10-10-10-------------------------8-10-10-------| \
G|------------------10--10----------------9-9---9-9----7-7-7-----------------|  \
D|-------------------------------------999-9-999-9--999-9-9------------------|  / x3
A|---------------------------------------------------------------------------| /
E|---------------------------------------------------------------------------|/

 
 END


************************************

| /   slide up
| \   slide down
| h   hammer-on
| p   pull-off
| ~   vibrato
| +   harmonic
| x   Mute note
| b   Bend
| pb  Pre-bend
| br  Bend release
| pbr Pre-bend release
| brb Bend release bend

************************************
Tap to rate this tab
 
# A B C D E F G H I J K L M N O P Q R S T U V W X Y Z