Song name
# A B C D E F G H I J K L M N O P Q R S T U V W X Y Z

Diiv - Past Lives tab

DIIV - Past Lives
From their debut album "Oshin" (Captured Tracks 2012).

Tabbed by Isaac Murguia, 8/6/2013.
YouTube: Goadiroth

CHORUS A:
  Guitar 1           1.2.3.        4.
e|----0---0---0-----|-------------|-8-8-8-8-8-8-10--|
B|-10---8-----------|-------------|-----------------|
G|----------9---10--|-7-7-5--7-7--|-----------------|
D|------------------|-------------|-----------------|
A|------------------|-------------|-----------------|
E|------------------|-------------|-----------------| [x2]
  Guitar 2
e|------------------------------|
B|------------------------------|
G|----5---5---5-7--5------------|
D|-7----7---7--------7-5--5-5-5-|
A|------------------------------|
E|------------------------------| [x8]

VERSE:
  Guitar 2        1.2.3.        4.
e|---------------|-------------|-8-8-8-8-8-8-10--|
B|-10--8---------|-------------|-----------------|
G|--------9--10--|-7-7-5--7-7--|-----------------|
D|---------------|-------------|-----------------|
A|---------------|-------------|-----------------|
E|---------------|-------------|-----------------| [x2]

PRE-CHORUS:
  Guitar 1:
e|-----------------------------------------|
B|-10-10-10-10-(x2)--8-8-8-8--13-13-13-13--|
G|-----------------------------------------|
D|-----------------------------------------|
A|-----------------------------------------|
E|-----------------------------------------| [x4]

  Guitar 2: same as VERSE

CHORUS B:
  Guitar 1           1.2.3.        4.
e|----0---0---0-----|-------------|-8-8-8-8-8-8-10--|
B|-10---8-----------|-------------|-----------------|
G|----------9---10--|-7-7-5--7-7--|-----------------|
D|------------------|-------------|-----------------|
A|------------------|-------------|-----------------|
E|------------------|-------------|-----------------| [x3]

  Guitar 2
e|------------------------------|      |-x--x--x--x-----------|
B|------------------------------|      |-x--x--x--x-----------|
G|----5---5---5-7--5------------|      |-10-10-10-10--(x4)----|
D|-7----7---7--------7-5--5-5-5-|      |-x--x--x--x-----------|
A|------------------------------|      |-x--x--x--x-----------|
E|------------------------------| [x4] |-x--x--x--x-----------| [x8]

OUTRO:
  Guitar 1
e|--------------------|--------------------|--------------------|--------------------------|
B|----8------8------8-|----8------8------8-|----8-------8-------|-8----8----10----10----10-|
G|------0------0------|------0------0------|------10------10----|--------------------------|
D|-10-----10-----10---|-10-----10-----10---|-10------10------10-|---10---10----10----10----|
A|--------------------|--------------------|--------------------|--------------------------|
E|--------------------|--------------------|--------------------|--------------------------| \
                                                                                              [x3]
e|--------------------|--------------------|--------------------|--------------------8-----| /
B|----0------0--------|----0------0--------|----0------0--------|----0----8----10----------|
G|------9------9----9-|------9------9----9-|------7------7----7-|--------------------------|
D|-10-----10-----10---|-10-----10-----10---|-10-----10-----10---|-10---10---10----10-------|
A|--------------------|--------------------|--------------------|--------------------------|
E|--------------------|--------------------|--------------------|--------------------------|

  Guitar 2: I can't really hear it, so I couldn't really tab it.
            The melody above is the dominant one, so that works just fine. :)

END. Please rate!
Tap to rate this tab
# A B C D E F G H I J K L M N O P Q R S T U V W X Y Z