Song name
# A B C D E F G H I J K L M N O P Q R S T U V W X Y Z

Dikembe - Scottie Spliffen tab

Dikembe
- http://dikembe.bandcamp.com/
- https://www.facebook.com/dikembefl


Here's a really quick tab of Scottie Spliffen by Dikembe that goes with my
acoustic cover on youtube - http://www.youtube.com/watch?v=tFgUlLmjLgA

I've just tabbed the chords I play, not the rhythm.


Tuning is F A C G C E 

OR

E G# B F# B D# capo 1 (if you don't want to tune your low e and b strings up)



Intro/Verse - I'm no good with maps.....

E|--0--0--0--
C|--0--0--0--
G|--0--0--0--
C|--7--4--2--
A|--8--5--3--
F|--0--x--x--


I got a problem with problems.....

E|--0--0--0----0--0--0--0--
C|--0--0--0----0--0--0--0--
G|--0--0--0----0--0--0--0--
C|--0--0--0----0--0--7--9--
A|--3--3--3----3--3--x--x--
F|--4--0--2----4--0--7--9--

(x) Mute

Tap to rate this tab
# A B C D E F G H I J K L M N O P Q R S T U V W X Y Z