Song name
# A B C D E F G H I J K L M N O P Q R S T U V W X Y Z

Dikers - Las Noches Que Me Invente tab

Por pepe: zero_guy@hotmail.com

INTRO
Guitarra1
D#5, A#5, G#5-D#5 (x4)

Guitarra2
e----------------------------------------------------------------|
B-88-x-8-x-88-x-8-x-1111-x-11-88-44------------------------------|
G-xx-x-x-x-xx-x-x-x-xxxx-x-xx-xx-xx------------------------------| (x3)
D-55-x-5-x-55-x-5-x-8-8--x-8--55-11------------------------------|
A----------------------------------------------------------------|
E----------------------------------------------------------------|

e----------------------------------------------------------------|
B-88-x-8-x-88-x-8-x-11-------------------------------------------|
G-xx-x-x-x-xx-x-x-x-xx-------------------------------------------|
D-55-x-5-x-55-x-5-x-8--------------------------------------------|
A----------------------------------------------------------------|
E----------------------------------------------------------------|


VERSO PT 1

Guitarra1 y 2 (PALM MUTE)
D#5      A#5           G#5
Si soy capaz me vuelvo a resucitar
    A#5
en medio de una canción
D#5          A#5
si lo hago mal
            G#5
no dejes de susurrar
     A#5
que no hay sitio en tu colchón

VERSO PT 2

Guitarra1
D#5      A#5           G#5
mi corazón a punto de caducar
  A#5
de estar esperándote
D#5         A#5            G#5
y en el balcón sufría como un cristal
A#5               G#5
antes de que despierte
A#5
mis sueños de bar en bar

Guitarra2
e----------------------------------------------------------------|
B----------------------------------------------------------------|
G-8-8-10-8-8-8-12-8-8-8-13-8-8-8-12-8----------------------------| (x8)
D----------------------------------------------------------------|
A----------------------------------------------------------------|
E----------------------------------------------------------------|

e----------------------------------------------------------------|
B-9-8-9-8---9-8-9-8----------------------------------------------|
G-x-x-x-x---x-x-x-x----------------------------------------------|
D-6-5-6-5---6-5-6-5----------------------------------------------|
A----------------------------------------------------------------|
E----------------------------------------------------------------|

CORO

Guitarra1
D#5      A#5           G#5
y ya lo ves soy fácil de convencer
   A#5                  G#5
con besos robados de un todo a 100
    A#5                  G#5
que dejo esparcidos por el arcén
    A#5
(por el arcén)

e----------------------------------------------------------------|
B--------------------------------------9-8-7---------------------|
G-8-7-8-8-8-8-7-7-7-7-7-7-5-5-5-5-5-5--x-x-x---------------------|
D-x-x-x-x-x-x-x-x-x-x-x-x-x-x-x-x-x-x--6-5-3---------------------|
A-6-5-6-6-6-6-5-5-5-5-5-5-3-3-3-3-3-3----------------------------|
E----------------------------------------------------------------|

e----------------------------------------------------------------|
B-9-8-9-8---9-8-9-8---9-8-9-8---9-8-9-8--------------------------|
G-x-x-x-x---x-x-x-x---x-x-x-x---x-x-x-x--------------------------|
D-6-5-6-5---6-5-6-5---6-5-6-5---6-5-6-5--------------------------|
A----------------------------------------------------------------|
E----------------------------------------------------------------|

VERSO 2 PT 1

Guitarra1 y 2 (PALM MUTE)
D#5      A#5           G#5
Mejor callar y hacer del cielo un desván
         A#5
y que nada sea como ayer
D#5      A#5                G#5
y acariciar la sombra del pedestal
 A#5
dónde un día te encontré

VERSO 2 PT 2

Guitarra1
D#5        A#5           G#5
ningún ritual me vuelve a la realidad
A#5
como hizo aquel revolcón
D#5        A#5               G#5
que si no estás, me empacho de libertad
   A#5                 G#5
se vuelven las noches largas
  A#5
y de amargo y rancio sabor

Guitarra2
e----------------------------------------------------------------|
B----------------------------------------------------------------|
G-8-8-10-8-8-8-12-8-8-8-13-8-8-8-12-8----------------------------| (x8)
D----------------------------------------------------------------|
A----------------------------------------------------------------|
E----------------------------------------------------------------|

e----------------------------------------------------------------|
B-9-8-9-8---9-8-9-8----------------------------------------------|
G-x-x-x-x---x-x-x-x----------------------------------------------|
D-6-5-6-5---6-5-6-5----------------------------------------------|
A----------------------------------------------------------------|
E----------------------------------------------------------------|


CORO...

Guitarra1
D#5      A#5           G#5
y ya lo ves soy fácil de convencer
   A#5                  G#5
con besos robados de un todo a 100
    A#5                  G#5
que dejo esparcidos por el arcén
    A#5
(por el arcén)
    D#5        A#5           G#5
y otra vez a revolver en las noches que me inventé
 A#5                  G#5
de contenedores llenos de miel
 A#5                  G#5
que van calle abajo
 A#5                  G#5
de un punta a pie
 A#5
(de un punta a pie)

Guitarra2
e----------------------------------------------------------------|
B--------------------------------------9-8-7---------------------|
G-8-7-8-8-8-8-7-7-7-7-7-7-5-5-5-5-5-5--x-x-x---------------------|
D-x-x-x-x-x-x-x-x-x-x-x-x-x-x-x-x-x-x--6-5-3---------------------|
A-6-5-6-6-6-6-5-5-5-5-5-5-3-3-3-3-3-3----------------------------|
E----------------------------------------------------------------|

e----------------------------------------------------------------|
B-9-8-9-8---9-8-9-8---9-8-9-8---9-8-9-8--------------------------|
G-x-x-x-x---x-x-x-x---x-x-x-x---x-x-x-x--------------------------|
D-6-5-6-5---6-5-6-5---6-5-6-5---6-5-6-5--------------------------|
A----------------------------------------------------------------|
E----------------------------------------------------------------|

e----------------------------------------------------------------|
B--------------------------------------9-8-7---------------------|
G-8-7-8-8-8-8-7-7-7-7-7-7-5-5-5-5-5-5--x-x-x---------------------|
D-x-x-x-x-x-x-x-x-x-x-x-x-x-x-x-x-x-x--6-5-3---------------------|
A-6-5-6-6-6-6-5-5-5-5-5-5-3-3-3-3-3-3----------------------------|
E----------------------------------------------------------------|

e----------------------------------------------------------------|
B-9-8-9-8---9-8-9-8---9-8-9-8---9-8-9-8--------------------------|
G-x-x-x-x---x-x-x-x---x-x-x-x---x-x-x-x--------------------------|
D-6-5-6-5---6-5-6-5---6-5-6-5---6-5-6-5--------------------------|
A----------------------------------------------------------------|
E----------------------------------------------------------------|

INTERMEDIO PT 1

Guitarra1
D#5, A#5, G#5, B5 (x3)

Guitarra2
e---11-10-11---11-10-11---11-10-11-------------------------------|
B----------------------------------12-11-9-----------------------|
G------------------------------------------12--------------------|
D-13---------12---------10---------------------------------------|
A----------------------------------------------------------------|
E----------------------------------------------------------------|

e---11-10-11---11-10-11---11-10-11-------------------------------|
B----------------------------------12-11-9-----------------------|
G------------------------------------------12--------------------| (x2)
D------------12---------10---------------------------------------|
A----------------------------------------------------------------|
E----------------------------------------------------------------|

e---11-10-11---11-10-11---11-10-11-------------------------------|
B----------------------------------------------------------------|
G----------------------------------13----------------------------|
D------------12---------10---------------------------------------|
A----------------------------------------------------------------|
E----------------------------------------------------------------|

INTERMEDIO PT 2

Guitarra1
(D#5, A#5, G#5, A#5) x3
G#5      A#5
....... Las noches que me inventé

Guitarra2
e--------------------------------------------------------------------|
B-8-8-8-9-9-9-11-11-11-11-11-11-11-11----------------8-8-8-8-8-8-8-8-|
G-------------------------------------8-8-8-10-10-10-----------------|
D--------------------------------------------------------------------|
A--------------------------------------------------------------------|
E--------------------------------------------------------------------|

e--------------------------------------------------------------------|
B-------------6-6-6-6-6-6-6-6-------------4-4-4-4-4-4-4-4------------|
G-7-7-7-8-8-8-----------------5-5-5-7-7-7----------------------------|
D--------------------------------------------------------------------|
A--------------------------------------------------------------------|
E--------------------------------------------------------------------|

e-------------------------8-8----------------------------------------|
B-8-8-8-9-9-9-11-11-11-11-----11-11----------------8-8-8-8-9-9-8-8---|
G-----------------------------------8-8-8-10-10-10-------------------|
D--------------------------------------------------------------------|
A--------------------------------------------------------------------|
E--------------------------------------------------------------------|

e--------------------------------------------------------------------|
B-------------6-6-6-6-8-8-6-6-------------4-4-4-4-6-6-4-4------------|
G-7-7-7-8-8-8-----------------5-5-5-7-7-7----------------------------|
D--------------------------------------------------------------------|
A--------------------------------------------------------------------|
E--------------------------------------------------------------------|

e--------------------------------------------------------------------|
B--------------------------------------------------------------------|
G--------------------------------------------------------------------|
D-15-15-13-13-17-17-13-13-15-15-17-17-15-15-17-17--------------------|
A--------------------------------------------------------------------|
E--------------------------------------------------------------------|

e--------------------------------------------------------------------|
B--------------------------------------------------------------------|
G--------------------------------------------------------------------|
D-12-12-13-13-15-15-12-12-13-13-15-15-13-13-15-15--------------------|
A--------------------------------------------------------------------|
E--------------------------------------------------------------------|

e--------------------------------------------------------------------|
B--------------------------------------------------------------------|
G--------------------------------------------------------------------|
D-10-10-12-12-13-13-10-10-12-12-13-13-12-12-13-13--------------------|
A--------------------------------------------------------------------|
E--------------------------------------------------------------------|

e--------------------------------------------------------------------|
B--------------------------------------------------------------------|
G--------------------------------------------------------------------|
D-12-12-13-13-15-15-12-12-13-13-15-15-13-13-15-15--------------------|
A--------------------------------------------------------------------|
E--------------------------------------------------------------------|

e--------------------------------------------------------------------|
B--------------------------------------------------------------------|
G--------------------------------------------------------------------|
D-15-15-13-13-17-17-13-13-15-15-17-17-15-15-17-17--------------------|
A--------------------------------------------------------------------|
E--------------------------------------------------------------------|

(Empuja las 3a cuerda ligeramente hacia arriba)
e--------------------------------------------------------------------|
B--9-10-11-11-11-11--------------------------------------------------|
G-12-13-14-14-14-14--------------------------------------------------|
D--------------------------------------------------------------------|
A--------------------------------------------------------------------|
E--------------------------------------------------------------------|

CORO
INTRO

Por pepe: zero_guy@hotmail.com

www.dikers.com
Tap to rate this tab
# A B C D E F G H I J K L M N O P Q R S T U V W X Y Z