Song name
# A B C D E F G H I J K L M N O P Q R S T U V W X Y Z

Dikta - Cycles tab

This is what I've come up with. Might not be perfect but it's workable for playing 
this beautiful song.

Capo 3rd

e||-------0-------0-------0-------0-|-------0-------0-------0-------0-|
B||-----3-------3-------3-------3---|-----3-------3-------2-------2---|
G||---2-------2-------2-------2-----|---2-------2-------2-------2-----|
D||---------------------------------|---------------------------------|
A||-2-------2-------2-------2-------|-0-------0-------0-------0-------|
E||---------------------------------|---------------------------------|


|-------0-------0-------0-------0-|-------0-------0-------0-------0-|
|-----3-------3-------3-------3---|-----3-------3-------3-------3---|
|---2-------2-------2-------2-----|---0-------0-------0-------0-----|
|---------------------------------|---------------------------------|
|-2-------2-------2-------2-------|---------------------------------|
|---------------------------------|-3-------3-------3-------3-------|

Repeats through the whole song as far as I can tell

Little outro after "...hope I'll see you again"

|-------2-------3-------3-------2-|-------2-------3-------3-------2-|
|-----3-------3-------3-------3---|-----3-------3-------3-------3---|
|---0-------0-------0-------0-----|---0-------0-------0-------0-----|
|-0-------0-------0-------0-------|-0-------0-------0-------0-------|
|---------------------------------|---------------------------------|
|---------------------------------|---------------------------------|
Tap to rate this tab
 
# A B C D E F G H I J K L M N O P Q R S T U V W X Y Z