Song name
# A B C D E F G H I J K L M N O P Q R S T U V W X Y Z

Dillinger Escape Plan - Nong Eye Gong tab

DILLINGER ESCAPE PLAN - NONG EYE GONG (Ire Works)

STANDARD TUNING EADGBe

  
-------------------------|--------------------------|--------------|
-------------------------|--------------------------|--------------|
-------------------------|--------------------------|--------------|
-------------------------|--------------------------|--------------|
--3--3-----3-----3-------|--3-----3-----3-----3-----|--3-----3-----|
--1--1-----1-----1-------|--1-----1-----1-----1-----|--1-----1-----|

-------------------------|--------------------------|----------------|
-------------------------|--------------------------|----------------|
-------------------------|--------------------------|----------------|
-------------------------|--------------------------|----------------|
--3--3-----3-----3-------|--3-----3-----3-----3-----|--3-----3-----3-|
--1--1-----1-----1-------|--1-----1-----1-----1-----|--1-----1-----1-|



------------------------|---------------------|---------------------|
------------------------|---------------------|---------------------|
------------------------|---------------------|---------------------|
--7--8------------------|--8------------------|--8------------------|
--5--6------------------|--6------------------|--6------------------|
----------6--3--6--0----|-------6--3--6--0----|-------6--3--6--0----|

----------------|--------------------------|
----------------|--------------------------|
----------------|--------------------------|
--8-------------|--------------------------|
--6-------------|--------------------------|
-------6--3--6--|--0--0-----0--0-----------|
                 pm-------------



guitar 1
--------------------------------------------------|
--------------------------------------------------|
--------------------------------------------------|
--------------------------5--5--5--5--8--8--8--8--|
--6--6--6--6--6--6--6--6--------------------------|
--------------------------------------------------|
pm-----------------------------------------------

guitar 2
--13-13-13-13-13-13-13-13-13/14/15/16/17/18/19/20-|
--------------------------------------------------|
--------------------------------------------------|
--------------------------------------------------|
--------------------------------------------------|
--------------------------------------------------|
pm-----------------------------------------------


guitar 1
--------------------------------------------------|
--------------------------------------------------|
--------------------------------------------------|
--------------------------5--5--5--5--8--8--8--8--|
--6--6--6--6--6--6--6--6--------------------------|
--------------------------------------------------|
pm-----------------------------------------------

guitar 2
--13-13-13-13-13-13-13-13-13/14/15/16/17/18/19/20-|
--------------------------------------------------|
--------------------------------------------------|
--------------------------------------------------|
--------------------------------------------------|
--------------------------------------------------|
pm-----------------------------------------------


guitar 1
--------------------------------------------------|
--------------------------------------------------|
--------------------------------------------------|
--------------------------5--5--5--5--8--8--8--8--|
--6--6--6--6--6--6--6--6--------------------------|
--------------------------------------------------|

guitar 2
--13-13-13-13-13-13-13-13-13/14/15/16/17/18/19/20-|
--------------------------------------------------|
--------------------------------------------------|
--------------------------------------------------|
--------------------------------------------------|
--------------------------------------------------|
pm-----------------------------------------------


guitar 1
--------------------------------------------------|
--------------------------------------------------|
--------------------------------------------------|
--------------------------5--5--5--5--8--8--8--8--|
--6--6--6--6--6--6--6--6--------------------------|
--------------------------------------------------|
pm-----------------------------------------------

guitar 2
--13-13-13-13-13-13-13-13-13/14/15/16/17/18/19/20-|
--------------------------------------------------|
--------------------------------------------------|
--------------------------------------------------|
--------------------------------------------------|
--------------------------------------------------|
pm-----------------------------------------------



------------------------|--------------------------|-----------------|
------------------------|--------------------------|-----------------|
------------------------|--------------------------|-----------------|
------------------------|--------------------------|-----------------|
--3-------3-----3-------|--3-----3-----3-----3-----|--3-----3-----3--|
--1-------1-----1-------|--1-----1-----1-----1-----|--1-----1-----1--|



---------------------|---------------------|---------------------|
---------------------|---------------------|---------------------|
---------------------|---------------------|---------------------|
-------8-------------|-------8-------------|-------8-------------|
--2----6----2--5--8--|--2----6----2--5--8--|--2----6----2--5--8--|
--0---------0--3--6--|--0---------0--3--6--|--0---------0--3--6--|

---------------------|--------------------|
---------------------|--------------------|
---------------------|--------------------|
-------8-------------|--------------------|
--2----6----2--------|--5--------8--------|
--0---------0--------|--3--------6--------|

 

--------------------------------------|-----------------------|
--------------------------------------|-----------------------|
-----7--------------7-----6-----8-----|--7--------6-----8--7--|
-----------8--7-----------------------|-----8--7--------------|
--5-----5--------5-----5-----6-----6--|--------------5--------|
--------------------------------------|-----------------------|

--------------------------------------|--------------------------|
--------------------------------------|--------------------------|
-----7--------------6-----8-----7-----|-----------7-----6-----8--|
-----------8--7-----------------------|--8--7--------------------|
--5-----5--------5-----6-----6-----5--|--------5-----5-----6-----|
--------------------------------------|--------------------------|


--------------------------------------|-----------------------|
--------------------------------------|-----------------------|
-----7--------------7-----6-----8-----|--7--------6-----8--7--|
-----------8--7-----------------------|-----8--7--------------|
--5-----5--------5-----5-----6-----6--|--------------5--------|
--------------------------------------|-----------------------|

--------------------------------------|--------------------------|
--------------------------------------|--------------------------|
-----7--------------6-----8-----7-----|-----------7-----6-----8--|
-----------8--7-----------------------|--8--7--------------------|
--5-----5--------5-----6-----6-----5--|--------5-----5-----6-----|
--------------------------------------|--------------------------|

--------------------|
--------------------|
--------------------|
--------7--7--7--7--|
--8--8--5--5--5--5--|
--6--6--------------|



--------------------------------|----------------------------0--|
--------------------------------|----------------------------0--|
--------------------------------|-------------------------------|
--------------------------------|-------------------------------|
--3-----3-----3--2-----3--2-----|--2--3-----3-----3--2----------|
--1-----1-----1--0-----1--0-----|--0--1-----1-----1--0----------|

--------------------|----------------------|-----------------0--|
--------------------|----------------------|-----------------0--|
--------------------|----------------------|--------------------|
--------------------|----------------------|--------------------|
--2--3-----3--2-----|--2--3----3--2--3--2--|--3-----3--2--------|
--0--1-----1--0-----|--0--1----1--0--1--0--|--1-----1--0--------|



-------------------|-------------------|
-------------------|-------------------|
-------------------|-------------------|
-------------------|-------------------|
-------------------|-------------------|
-------------------|-------------------|

-------------------|-------------------|
-------------------|-------------------|
-------------------|----------6--6--6--|
-------------------|----------6--6--6--|
-------------------|----------4--4--4--|
-------------------|-------------------|



--------------------------------------|-----------------------|
--------------------------------------|-----------------------|
-----7--------------7-----6-----8-----|--7--------6-----8--7--|
-----------8--7-----------------------|-----8--7--------------|
--5-----5--------5-----5-----6-----6--|--------------5--------|
--------------------------------------|-----------------------|

--------------------------------------|--------------------------|
--------------------------------------|--------------------------|
-----7--------------6-----8-----7-----|-----------7-----6-----8--|
-----------8--7-----------------------|--8--7--------------------|
--5-----5--------5-----6-----6-----5--|--------5-----5-----6-----|
--------------------------------------|--------------------------|

--------------------|
--------------------|
--------------------|
--------7--7--7--7--|
--8--8--5--5--5--5--|
--6--6--------------|



--------------------------------------|-----------------------|
--------------------------------------|-----------------------|
-----7--------------7-----6-----8-----|--7--------6-----8--7--|
-----------8--7-----------------------|-----8--7--------------|
--5-----5--------5-----5-----6-----6--|--------------5--------|
--------------------------------------|-----------------------|

--------------------------------------|--------------------------|
--------------------------------------|--------------------------|
-----7--------------6-----8-----7-----|-----------7-----6-----8--|
-----------8--7-----------------------|--8--7--------------------|
--5-----5--------5-----6-----6-----5--|--------5-----5-----6-----|
--------------------------------------|--------------------------|

--------------------|
--------------------|
--------------------|
--------7--7--7--7--|
--8--8--5--5--5--5--|
--6--6--------------|




--------------------------------|----------------------------0--|
--------------------------------|----------------------------0--|
--------------------------------|-------------------------------|
--------------------------------|-------------------------------|
--3-----3-----3--2-----3--2-----|--2--3-----3-----3--2----------|
--1-----1-----1--0-----1--0-----|--0--1-----1-----1--0----------|

--------------------|----------------------|-----------------0--|
--------------------|----------------------|-----------------0--|
--------------------|----------------------|--------------------|
--------------------|----------------------|--------------------|
--2--3-----3--2-----|--2--3----3--2--3--2--|--3-----3--2--------|
--0--1-----1--0-----|--0--1----1--0--1--0--|--1-----1--0--------|

--0--0--0-----------------|-------------------|
--0--0--0-----------------|-------------------|
--------------------------|-------------------|
--------------------------|-------------------|
-----------3--3--3--3--3--|-------------------|
-----------1--1--1--1--1--|-------------------|
         pm-------------



------------------------|--------------------------|------------|
------------------------|--------------------------|------------|
------------------------|--------------------------|------------|
------------------------|--------------------------|------------|
--3--2--3-----3--2------|--3--2--3-----3--2--3-----|--3--2------|
--1--0--1-----1--0------|--1--0--1-----1--0--1-----|--1--0------|



--------------------------|--------------------------|
--------------------------|--------------------------|
--------------------------|--------------------------|
--------------------------|--------------------------|
--3--2--3--2--3--2--3--2--|--3--2--3--2--3--2--3--2--|
--1--0--1--0--1--0--1--0--|--1--0--1--0--1--0--1--0--|
          
--------------------------|--------------|
--------------------------|--------------|
--------------------------|--------------|
--------------------------|--------------|
--3--2--3--2--3--2--3--2--|--2--5--5--5--|
--1--0--1--0--1--0--1--0--|--0--4--4--4--|
Tap to rate this tab
# A B C D E F G H I J K L M N O P Q R S T U V W X Y Z