Song name
# A B C D E F G H I J K L M N O P Q R S T U V W X Y Z

Dillinger Escape Plan - When Acting As A Particle tab

Help us improve GuitareTab! Take a short survey!
DILLINGER ESCAPE PLAN - WHEN ACTING AS A PARTICLE (Ire Works)

STANDARD TUNING - EADGBe

Gtr I - left ear
Gtr II - right ear 



 Gtr I
|-----------------|-----------------|-----------------|-----------------|
|-----------------|-----------------|-----------------|-----------------|
|-7---6---8---7---|-6---8---7---6---|-8---7---6---8---|-7---6---8---7---|
|-----------------|-----------------|-----------------|-----------------|
|-----------------|-----------------|-----------------|-----------------|
|-----------------|-----------------|-----------------|-----------------|
|
|Gtr II
|-----------------|-----------------|-----------------|-----------------|
|-----------------|-----------------|-----------------|-----------------|
|-7---6---8---7---|-6---8---7---6---|-8---7---6---8---|-7---6---8---7---|
|-----------------|-----------------|-----------------|-----------------|
|-----------------|-----------------|-----------------|-----------------|
|-----------------|-----------------|-----------------|-----------------|



 Gtr I
|-----------------|-----------------|-----------------|-----------------|
|-----------------|-----------------|-----------------|-----------------|
|-6---8---7---6---|-8---7---6---8---|-7---------7---6-|---8---7-----6---|
|-----------------|-----------------|-----8-7---------|---------8-7-----|
|-----------------|-----------------|-----------------|-----------------|
|-----------------|-----------------|-----------------|-----------------|
|
|Gtr II
|-----------------|-----------------|-----------------|-----------------|
|-----------------|-----------------|-----------------|-----------------|
|-6---8---7---6---|-8---7---6---8---|-7---6---8---7---|-6---8---7---6---|
|-----------------|-----------------|-----------------|-----------------|
|-----------------|-----------------|-----------------|-----------------|
|-----------------|-----------------|-----------------|-----------------|



 Gtr I
|-----------------|-----------------|-----------------|-----------------|
|-----------------|-----------------|-----------------|-----------------|
|-8-----7---------|-6---8---7-------|---7---6---8---7-|---------7---6---|
|---0-------8-7---|-------------8-7-|-----------------|---8-7-----------|
|-----------------|-----------------|-----------------|-----------------|
|-----------------|-----------------|-----------------|-----------------|
|
|Gtr II
|-----------------|-----------------|-----------------|-----------------|
|-----------------|-----------------|-----------------|-----------------|
|-8---7---6---8---|-7---6---8---7---|-6---8---7---6---|-8---7---6---8---|
|-----------------|-----------------|-----------------|-----------------|
|-----------------|-----------------|-----------------|-----------------|
|-----------------|-----------------|-----------------|-----------------|



 Gtr I
|-----------------|-----------------|-----------------|-----------------|
|-----------------|-----------------|-----------------|-----------------|
|-8---7-----6---8-|-----7---------6-|---8---7---------|-7---6---8---7---|
|-------8-7-------|-0-------8-7-----|-----------8-7---|-----------------|
|-----------------|-----------------|-----------------|-----------------|
|-----------------|-----------------|-----------------|-----------------|
|
|Gtr II
|-----------------|-----------------|-----------------|-----------------|
|-----------------|-----------------|-----------------|-----------------|
|-7---6---8---7---|-6---8---7---6---|-8---7---6---8---|-7---6---8---7---|
|-----------------|-----------------|-----------------|-----------------|
|-----------------|-----------------|-----------------|-----------------|
|-----------------|-----------------|-----------------|-----------------|



 Gtr I
|-----------------|-----------------|-----------------|-----------------|
|-----------------|-----------------|-----------------|-----------------|
|-------7---6---8-|---7-----6---8---|---7---------6---|-8---7---------7-|
|-8-7-------------|-----8-7-------0-|-------8-7-------|---------8-7-----|
|-----------------|-----------------|-----------------|-----------------|
|-----------------|-----------------|-----------------|-----------------|
|
|Gtr II
|-----------------|-----------------|-----------------|-----------------|
|-----------------|-----------------|-----------------|-----------------|
|-6---8---7---6---|-8---7---6---8---|-7---6---8---7---|-6---8---7---6---|
|-----------------|-----------------|-----------------|-----------------|
|-----------------|-----------------|-----------------|-----------------|
|-----------------|-----------------|-----------------|-----------------|



 Gtr I
|-----------------|
|-----------------|
|---6---8---------|
|-----------------|
|-----------------|
|-----------------|
|
|Gtr II
|-----------------|
|-----------------|
|-8---7-----------|
|-----------------|
|-----------------|
|-----------------|

Related for When Acting As A Particle tab