Song name
# A B C D E F G H I J K L M N O P Q R S T U V W X Y Z

Dillinger Escape Plan - Mouth Of Ghosts tab

4:08
e|-16---18h19-------------------------------------------------------------|
B|-----------16---16h18-18b---18-16-14---14h16-16b---14--12--14--16--11---|
G|------------------------------------------------------------------------| x2
D|------------------------------------------------------------------------|
A|------------------------------------------------------------------------|
D|------------------------------------------------------------------------|

e|----------------------|
B|-9--8h9-8h9-8h9-8h9---|
G|----------------------| x2
D|----------------------|
A|----------------------|
D|----------------------|

5:11
"You were a mouth without a heart"
e|----------------------------------------------------------------|
B|----------------------------------------------------------------|
G|----------------------------------------------------------------|
D|-4-4--4-4-4-4-4--4-4--4-4-4-4-4--2-2--2-2-2-2-2--1-1--1-1-1-1-1-|
A|-4-4--4-4-4-4-4--4-4--4-4-4-4-4--2-2--2-2-2-2-2--1-1--1-1-1-1-1-|
D|-4-4--4-4-4-4-4--4-4--4-4-4-4-4--2-2--2-2-2-2-2--1-1--1-1-1-1-1-|

e|--------------------------------|
B|--------------------------------|
G|--------------------------------|
D|---6------8------9-------11-----|
A|--------------------------------|
D|-6----6-8----8-9----9-11-----11-|

Outro (Gtr 1)
e|-----------|
B|-----------|
G|-----------|
D|-6--6--6-6-|
A|-6--6--6-6-|
D|-6--6--6-6-|
pm         .

Outro (Gtr 2)
e|-14--11-11-|
B|-----------|
G|-----------|
D|-----------|
A|-----------|
D|-----------|
Tap to rate this tab
 
# A B C D E F G H I J K L M N O P Q R S T U V W X Y Z