Song name
# A B C D E F G H I J K L M N O P Q R S T U V W X Y Z

Dillinger Escape Plan - Come To Daddy tab

-------------------------------------------------------------------------------
			     COME TO DADDY (Aphex Twin Cover) - Dillinger Escape Plan
-------------------------------------------------------------------------------

Tuning: Drop D


--------------------------
****** NOT MY TAB ******
** Found it on 911 Tabs**
--------------------------

was suprised when i didnt find this song anywhere tabbed, either by apex twin or 
either way,
its a great song, enjoy.

i guess dillinger uses standard.....i like drop d....if you know anything about guitar 
can play it
either way with this tab

E ----------------------------------------------------------------------|
B ----------------------------------------------------------------------|
G --5555555--4444444----------------------------------------------------|      x 20
D --5555555--4444444--3333333--------10--10-----------------------------|
A --3333333--2222222--3333333--------8---8------------------------------|
D --------------------3333333-------------------------------------------|

Guitar break

E ---------------------------------------------------------------------------|
B ---------------------------------------------------------------------------|
G --5555555--4444444-----------------------------------------------      x 4-|
D --5555555--4444444--3333333--------10--10----------------------------------|
A --3333333--2222222--3333333--------8---8-----------------------------------|
D --------------------3333333------------------------------------------------|

This is where the bridge comes in


E --------------------------------------------------------------------|
B --------------------------------------------------------------------|
G ----------------------88------let ring----------------          x 8-|
D --5---------88---66---88----- let ring -----------------------------|
A --5---------88---66---66----- let ring -----------------------------|
D --5---------88---66-------------------------------------------------|

After the fifth time the bridge is played another guitar part is played during the
and im not sure
what it is.

E -------------------------------------------|
B -------------------------------------------|
G -------------------------------------------|
D -------------------------------------------|
A 3----------2-------------------------------|
D -----------------------3-------------------|

E -----------------------------------------------|
B -----------------------------------------------|
G -----------------------------------------------|
D -----------------------------10--10------------|
A 3----------2--------8-------8---8--------------|
D -----------------------------------------------|

E -----------------------------------------------------------------------|
B -----------------------------------------------------------------------|
G --5-----------4--------------------------------------------------------|
D --5-----------4------------3-------------------------------------------|
A --3-----------2------------3-------------------------------------------|
D ---------------------------3-------------------------------------------|

E --------------------------------------------------------------------------|
B --------------------------------------------------------------------------|
G --5----------4-------10---------------------------------------------------|
D --5----------4-------10-----10--10----------------------------------------|
A --3----------2-------8------8---8-----------------------------------------|
D --------------------------------------------------------------------------|


And the end of the song isn't on guitar, so that's it.
Tap to rate this tab
# A B C D E F G H I J K L M N O P Q R S T U V W X Y Z