Song name
# A B C D E F G H I J K L M N O P Q R S T U V W X Y Z

Dillinger Escape Plan - Wish tab

The Dillinger Escape Plan - Wish performed with nine inch nails live
video: http://www.youtube.com/watch?v=qboe5CebixA

Tuning: Standard (e a d g b e)

Riff 1

E|----------------------------------------|
B|----------------------------------------|
G|--7--7--7-/-8-/-7-/-5--7--7--7-/-8-/-7--|
D|--7--7--7-/-8-/-7-/-5--7--7--7-/-8-/-7--|
A|--5--5--5-/-6-/-5-/-3--5--5--5-/-6-/-5--|
E|----------------------------------------|

Riff 2

E|-----------------------------------------------|
B|-----------------------------------------------|
G|--10--5--7--7--7-/-8-/-7-/-5--7--7--7-/-8-/-7--|
D|--10--5--7--7--7-/-8-/-7-/-5--7--7--7-/-8-/-7--|
A|---8--3--5--5--5-/-6-/-5-/-3--5--5--5-/-6-/-5--|
E|-----------------------------------------------|


E|-----------------------------------------------------|
B|-----------------------------------------------------|
G|--10--5--------7--7--7-/-8-/-7-/-5--7--7--7-/-8-/-7--|
D|--10--5--5--6--7--7--7-/-8-/-7-/-5--7--7--7-/-8-/-7--|
A|---8--3--3--4--5--5--5-/-6-/-5-/-3--5--5--5-/-6-/-5--|
E|---------3--4----------------------------------------|


Bridge Thingy

E|--------------|
B|--------------|
G|--7--5--------|
D|--7--5--6--3--|
A|--5--3--6--3--|
E|--------4--1--|

Last riff

E|-------------------------|
B|-------------------------|
G|--7--7--7--7-/-5---------|
D|--7--7--7--7-/-5--6-/-3--|
A|--5--5--5--5-/-3--6-/-3--|
E|------------------4-/-1--|

Short and simple. most of the song, i might be missing one or two licks and riffs.
Tap to rate this tab
# A B C D E F G H I J K L M N O P Q R S T U V W X Y Z