Song name
# A B C D E F G H I J K L M N O P Q R S T U V W X Y Z

Dillinger Escape Plan - Chinese Whispers tab

album: Option Paralysis

standard tuning

this is the main riff. play palm muted during second part of verse.

-----------------------------------|
-----------------------------------|
-----------------------------------|
-----------------------------------|
-----6-6-----9-9-----6-6-----9-9---|
-0-0-----0-0-----0-0-----0-0-------|

-----------------------------------|
-----------------------------------|
-----------------------------------|
-------------4-4-------------4-4---|
-----6-6-------------6-6-----------|
-3-3-----3-3-----3-3-----3-3-------|


post-chorus riff

------------|
------------|
------------|
-5-6-x-5-6--|
-4-5-x-4-5--|
-3-4-x-3-4--|


pretty easy and fun to play. buy the new album!
Tap to rate this tab
 
# A B C D E F G H I J K L M N O P Q R S T U V W X Y Z