Guitaretab - guitar tabs
Song name
# A B C D E F G H I J K L M N O P Q R S T U V W X Y Z

Dillinger Escape Plan - Panasonic Youth tab

Band:  Dillinger Escape Plan
Album: Miss Machine
Song:  Panasonic Youth

Copyright (c) (Relapse Records)(2006)
Version 1.0 - (17/12/2006)

.  - palm mute           /  - slide up to
\  - slide down to       ~  - vibrato
h  - hammer on           b  - Bend
p  - pull off            Suffixes for bend
t  - tap                 f  - full bend    h - half bend
ph - pinched harmonic    q  - quarter bend t - tap bend
*  - see comment         ^  - Hold bend    r release bend
x  - Stuccatto           ~  - vibrato bend
,  - slight palm mute    () - ghost note, sustained note
"  - tremolo note        <> - Trill



Tuning E A D G B E

|---------------------------------------------------------|
|---------------------------------------------------------|
|-7-77-77-7777-7-7777-7-7-777-7-77-77-7777-7-7777-7-7-777-|
|-6-66-66-6666-6-6666-6-6-666-6-66-66-6666-6-6666-6-6-666-|
|-5-55-55-5555-5-5555-5-5-555-5-55-55-5555-5-5555-5-5-555-|
|-4-44-44-4444-4-4444-4-4-444-4-44-44-4444-4-4444-4-4-444-|

1 guitar
|--------------------------|
|-6-----6-----6-----6------|
|-6-----6-----6-----6------|
|-5-----5-----5-----5------|
|-4-4-5-4-4-5-4-4-5-4-4-5--|
|---3-4---3-4---3-4---3-4--|

2 guitar
|-------10-----10-----10---|
|----14-----14-----14------|
|--------------------------|
|--------------------------|
|--------------------------|
|--------------------------|


|-----------------------------|
|-----------------------------|
|-----------------------------|
|-6-66-66-6666-6-6666-6-6-666-|
|-5-55-55-5555-5-5555-5-5-555-|
|-4-44-44-4444-4-4444-4-4-444-|

|------------------------------------------------|
|-6-----6-----6-----6-----6-----6-----6-----6----|
|-6-----6-----6-----6-----6-----6-----6-----6----|
|-5-----5-----5-----5-----5-----5-----5-----5----|
|-4-4-5-4-4-5-4-4-5-4-4-5-4-2-2-4-2-2-4-22224-2--|
|---3-4---3-4---3-4---3-4---0-0---0-0---0000--0--|


|--------------------------------------------------|
|-6-----6-----6-----6-----6-----6-----6-----6------|
|-6-----6-----6-----6-----6-----6-----6-----6------|
|-5-----5-----5-----5-----5-----5-----5-----5------|
|-4-4-5-4-4-5-4-4-5-4-4-5-4-4-5-4-4-5-4-4-5-4-4-5--|
|---3-4---3-4---3-4---3-4---3-4---3-4---3-4---3-4--|


|----------------------------------------------|
|-6-----6-----6-----6----6-----6-----6-----6---|
|-6-----6-----6-----6----6-----6-----6-----6---|
|-5-----5-----5-----5----5-----5-----5-----5---|
|-4-4-5-4-4-5-4-4-5-4-22-4-4-5-4-4-5-4-4-5-4-2-|
|---3-4---3-4---3-4---00---3-4---3-4---3-4---0-|


|----------------------------------------------------|
|-6-----6-----6-----6----6-----6---------------------|
|-6-----6-----6-----6----6-----6---------------------|
|-5-----5-----5-----5----5-----5---------9-8-7-8-7-5-|
|-4-4-5-4-4-5-4-4-7-4-22-4-4-5-4-4-5-----7-6-5-6-5-3-|
|---3-4---3-4---3-4---00---3-4---3-4-----7-6-5-6-5-3-|


|--------------------------|
|--------------------------|
|---------12--------12-----|
|-10--10----10--10----10---|
|---8---8-----8---8-----8--|
|--------------------------|


|------------------------------------------------------|
|--------------------------------0-----0---------------|
|--------------------------------1-----1---------------|
|------------------------------------------------------|
|-3333-3-4-3-2-2-2222-666-323---323---3333-3-4-3-3-----|
|-1111-----------0000-444-101---101---1111-------------|


|--------------------------|
|--------------------------|
|---------12--------12-----|
|-10--10----10--10----10---|
|---8---8-----8---8-----8--|
|--------------------------|



|------------------------------------------------------|
|--------------------------------0-----0---------------|
|--------------------------------1-----1---------------|
|------------------------------------------------------|
|-3333-3-4-3-2-2-2222-666-323---323---3333-3-4-3-3-----|
|-1111-----------0000-444-101---101---1111-------------|


[ Tab from: http://www.guitaretab.com/d/dillinger-escape-plan/56649.html ]
|----------------------------------------------------------------------------|
|----------------------------------------------------------------------11----|
|---------12--------12--------12-------------------12--------12------9----9--|
|-10--10----10--10----10--10----10--10--11--10--10---10--10----10------------|
|---8---8-----8---8-----8---8-----8---8---8---8---8----8---8-----8-7---------|
|----------------------------------------------------------------------------|


|-----------------------------------------------------------------|
|-------------------------------------------------------------11--|
|---------12--------12--------------------12--------12------9-----|
|-10--10----10--10----10--10--11--10--10----10--10----10----------|
|---8---8-----8---8-----8---8---8---8---8-----8---8-----8-7-------|
|-----------------------------------------------------------------|

-

|----------------------------------------------------------------------------|
|----------------------------------------------------------------------11----|
|---------12--------12--------12-------------------12--------12------9----9--|
|-10--10----10--10----10--10----10--10--11--10--10---10--10----10------------|
|---8---8-----8---8-----8---8-----8---8---8---8---8----8---8-----8-7---------|
|----------------------------------------------------------------------------|


|-----------------------------------------------------------------|
|-------------------------------------------------------------11--|
|---------12--------12--------------------12--------12------9-----|
|-10--10----10--10----10--10--11--10--10----10--10----10----------|
|---8---8-----8---8-----8---8---8---8---8-----8---8-----8-7-------|
|-----------------------------------------------------------------|



|------------------------------------------------------------------------|
|-----0-----0-----0---------0-----0------0-----0-----0---------0------0--|
|-----1-----1-----1---------1-----1------1-----1-----1---------1------1--|
|-323---323---323---323-3-3----323---323---323---323---323-3-3----323----|
|-323---323---323---323-3-3----323---323---323---323---323-3-3----323----|
|-101---101---101---101-1-1----101---101---101---101---101-1-1----101----|



|----------------------------------------------------------------|
|-----0-----0-----0---------0------0-----0-----0---------0----0--|
|-----1-----1-----1---------1------1-----1-----1---------1----1--|
|-323---323---333---333-3-3----333---333---323---333-3-3---333---|
|-323---323---333---333-3-3----333---333---323---333-3-3---333---|
|-101---101---111---111-1-1----111---111---101---111-1-1---111---|



|----------------------------------|
|----------------------------------|
|----------------------------------|
|----------------------------------|
|-3-3-3-3-3-4-3-2-2-2-2-2-2-6-6-6-6|
|-1-1-1-1-----------0-0-0-0-4-4-4-4|



2nd guitar
|----------------------------------------------------|
|----------------------------------------------------|
|----imposible to get something from this part-------|
|----------------------------------------------------|
|----------------------------------------------------|
|----------------------------------------------------|



X2
|-----------------------------------|
|--------------------------22222----|
|--------------------------55555----|
|--------------------------22222----|
|-----------------------------------|
|-1----0----1----4----0-------------|



1st guitar
|----------------------------------------------------|
|---------------------------------------------22222--|
|---------------------------------------------55555--|
|---------------------------------------------22222--|
|----------------------------------------------------|
|--111-33-44-000000000--111-33-44-000000000----------|



do a pinch harmonic on the bend note
|------------------------------------------------|
|---------------------1--------------------------|
|----------3b---------1---1-3/4-1-3--------------|
|----3-1----------3-1---3----------------3-1-----|
|--------2-----------------------------------2---|
|--1------------1----------------------1---------|


X2
|------------------------------22222-|
|------------------------------22222-|
|------------------------------00000-|
|------------------------------------|
|-3--35-6-2-2-2-2-3--35-6-2-2--------|
|-1--13-4-0-0-0-0-1--13-4-0-0--------|



2nd guitar X3
|----------------------------|
|----------------------------|
|----------------------------|
|-3-2-3-5---6---2---2222222--|
|-3-2-3-5---6---2---2222222--|
|-1-0-1-3---4---0---0000000--|


both
|--------------------------|
|--------------------------|
|--------------------------|
|-3-2-3-5---6-----------2--|
|-3-2-3-5---6-----------2--|
|-1-0-1-3---4-----------0--|
Related for Panasonic Youth tab