Song name
# A B C D E F G H I J K L M N O P Q R S T U V W X Y Z

Dillinger Escape Plan - Unretrofied tab

i was unsatisfied with Siracid's version.
T.D.E.P-Unretrofied
Miss Machine(2005)

            
(00:14)   
E||------------------|----------------|----------------|---------------|
B||--5-5-5-5-5-5-5-5-|-5-5-5-5-5-5-5-5|-5-5-5-5-5-5-5-6|4-4-4-4-4-4-4-4|
G||--6-6-6-6-6-6-6-6-|-6-6-6-6-6-6-6-6|-6-6-6-6-6-6-6-6|5-5-5-5-5-5-5-5|
D||--6-6-6-6-6-6-6-6-|-6-6-6-6-6-6-6-6|-7-7-7-7-7-7-7-7|7-7-7-7-7-7-7-7|
A||------------------|----------------|----------------|---------------|
E||------------------|----------------|----------------|---------------|

--------------------------|--------------------------|
--5--5--5--5--5--5--5--5--|--5--5--5--5--5--5--5--5--|
--6--6--6--6--6--6--6--6--|--6--6--6--6--6--6--6--6--|
--7--7--7--7--7--7--7--7--|--7--7--7--7--7--7--7--7--|
--------------------------|--------------------------|
--------------------------|--------------------------|
   
--------------------------|--------------------------|
--5--5--5--5--5--5--5--5--|--4--4--4--4--4--4--4--4--|
--6--6--6--6--6--6--6--6--|--5--5--5--5--5--5--5--5--|
--6--6--6--6--6--6--6--6--|--6--6--6--6--6--6--6--6--|
--------------------------|--------------------------|
--------------------------|--------------------------|

(00:29) 
--------------------------|--------------------------|
--5--5--5--5--5--5--5--5--|--5--5--5--5--5--5--5--5--|
--6--6--6--6--6--6--6--6--|--6--6--6--6--6--6--6--6--|
--6--6--6--6--6--6--6--6--|--6--6--6--6--6--6--6--6--|
--------------------------|--------------------------|
--------------------------|--------------------------|

GTR II(00:29):

|--------------------------|--------------------------|
|-----------------------4--|--------------------------|
|--6-----6-----6-----6-----|-----------------------4--|
|-----4-----4-----4--------|--6-----6-----6-----6-----|
|--------------------------|-----4-----4-----4--------|
|--------------------------|--------------------------|

--------------------------|--------------------------|
-----4-----------------4--|--------------4--------4--|
-----------------4--------|--------------------------|
--6-----6-----6-----6-----|--6-----6--------6--------|
-----------4--------------|-----0-----0--------0-----|
--------------------------|--------------------------|
  
--------------------------|--------------------------|
--5--5--4--4--------------|--------------------------|
--------------------------|--------------------------|
--------------6--6--6--6--|--4-----4--------2-----4--|
--------------------------|-----------2--4-----4-----|
--------------------------|-----2--------------------|
  
--------------------------|--------------------------|
--------------------------|--------------------------|
------------4-------------|-----------------------4--|
--2--4--/6-----6--4--6----|--6-----6-----6-----6-----|
--------------------------|-----4-----4-----4--------|
--------------------------|--------------------------|


GTR I:
(00:29)
--------------------------|--------------------------|
--5--5--5--5--5--5--5--5--|--5--5--5--5--5--5--5--5--|
--6--6--6--6--6--6--6--6--|--6--6--6--6--6--6--6--6--|
--6--6--6--6--6--6--6--6--|--6--6--6--6--6--6--6--6--|
--------------------------|--------------------------|
--------------------------|--------------------------|

--------------------------|--------------------------|
--5--5--5--5--5--5--5--5--|--4--4--4--4--4--4--4--4--|
--6--6--6--6--6--6--6--6--|--5--5--5--5--5--5--5--5--|
--7--7--7--7--7--7--7--7--|--7--7--7--7--7--7--7--7--|
--------------------------|--------------------------|
--------------------------|--------------------------|
  
--------------------------|--------------------------|
--5--5--5--5--5--5--5--5--|--5--5--5--5--5--5--5--5--|
--6--6--6--6--6--6--6--6--|--6--6--6--6--6--6--6--6--|
--7--7--7--7--7--7--7--7--|--7--7--7--7--7--7--7--7--|
--------------------------|--------------------------|
--------------------------|--------------------------|
                                                        (00:47)
--------------------------|--------------------------|--------------------|
--5--5--5--5--5--5--5--5--|--4--4--4--4--4--4--4--4--|--5\----------------|
--6--6--6--6--6--6--6--6--|--5--5--5--5--5--5--5--5--|--6\----------------|
--6--6--6--6--6--6--6--6--|--6--6--6--6--6--6--6--6--|--6\----------------|
--------------------------|--------------------------|--------------------|
--------------------------|--------------------------|--------------------|
(1:00)
|-----------------------|
|-----2-----2-----------|
|-----5-----5-----------|
|-----------------------|
|-----4-----4-----------|
|-----------------------|


(1:04)                 
|------------------------|-----------------------|
|------2-----2-----------|--------------2-----2--|
|*-----5-----5-----------|--------------5-----5--|
|*-----------------------|-----------------------|
|------4-----4-----------|--------------4-----4--|
|------------------------|-----------------------|


                       
"I'm Unretrofied..."  (1:20)  
--------------------||--------------------------|--------------------------|
--------------------||--5--5--5--5--5--5--5--5--|--5--5--5--5--5--5--5--5--|
-------------------*||--6--6--6--6--6--6--6--6--|--6--6--6--6--6--6--6--6--|
-------------------*||--6--6--6--6--6--6--6--6--|--6--6--6--6--6--6--6--6--|
--------------------||--------------------------|--------------------------|
--------------------||--------------------------|--------------------------|
 
--------------------------|--------------------------|
--5--5--5--5--5--5--5--5--|--4--4--4--4--4--4--4--4--|
--6--6--6--6--6--6--6--6--|--5--5--5--5--5--5--5--5--|
--7--7--7--7--7--7--7--7--|--7--7--7--7--7--7--7--7--|
--------------------------|--------------------------|
--------------------------|--------------------------|
 
--------------------------|--------------------------|
--5--5--5--5--5--5--5--5--|--5--5--5--5--5--5--5--5--|
--6--6--6--6--6--6--6--6--|--6--6--6--6--6--6--6--6--|
--7--7--7--7--7--7--7--7--|--7--7--7--7--7--7--7--7--|
--------------------------|--------------------------|
--------------------------|--------------------------|
  
--------------------------|--------------------------|
--5--5--5--5--5--5--5--5--|--4--4--4--4--4--4--4--4--|
--6--6--6--6--6--6--6--6--|--5--5--5--5--5--5--5--5--|
--6--6--6--6--6--6--6--6--|--6--6--6--6--6--6--6--6--|
--------------------------|--------------------------|
--------------------------|--------------------------|
  
--------------------------|--------------------------|
--5--5--5--5--5--5--5--5--|--5--5--5--5--5--5--5--5--|
--6--6--6--6--6--6--6--6--|--6--6--6--6--6--6--6--6--|
--6--6--6--6--6--6--6--6--|--6--6--6--6--6--6--6--6--|
--------------------------|--------------------------|
--------------------------|--------------------------|
   
--------------------------|--------------------------|
--5--5--5--5--5--5--5--5--|--4--4--4--4--4--4--4--4--|
--6--6--6--6--6--6--6--6--|--5--5--5--5--5--5--5--5--|
--7--7--7--7--7--7--7--7--|--7--7--7--7--7--7--7--7--|
--------------------------|--------------------------|
--------------------------|--------------------------|
   
--------------------------|--------------------------|
--5--5--5--5--5--5--5--5--|--5--5--5--5--5--5--5--5--|
--6--6--6--6--6--6--6--6--|--6--6--6--6--6--6--6--6--|
--7--7--7--7--7--7--7--7--|--7--7--7--7--7--7--7--7--|
--------------------------|--------------------------|
--------------------------|--------------------------|
   
--------------------------|--------------------------|
--5--5--5--5--5--5--5--5--|--4--4--4--4--4--4--4--4--|
--6--6--6--6--6--6--6--6--|--5--5--5--5--5--5--5--5--|
--6--6--6--6--6--6--6--6--|--6--6--6--6--6--6--6--6--|
--------------------------|--------------------------|
--------------------------|--------------------------|

(1:52)
-----------(5)-------------|---------------------------|-------------------|
--5-5-5-x---5--5--L--------|--L------------------------|-------------------|
--6-6-6-x---6--6--L--------|--L------------------------|-------------------|
--6-6-6-x---6--6--L--------|--L-------------(5)~---(4)-|--L----------------|
--4-4-4-x---4--4--L--------|--L------------------------|-------------------|
---------------------------|---------------------------|-------------------|
        
-----------------------|------------------------|-----------------------|
--------------2-----2--|---------x--x--x--x--x--|-----2-----2-----------|
--------------5-----5--|---------x--x--x--x--x--|-----5-----5-----------|
-----------------------|---------x--x--x--x--x--|-----------------------|
--------------4-----4--|---------x--x--x--x--x--|-----4-----4-----------|
-----------------------|------------------------|-----------------------|
  
-------------------|-----------------------|-----------------------|
-------------------|-----2-----2-----------|--------------2-----2--|
-------------------|-----5-----5-----------|--------------5-----5--|
-------------------|-----------------------|-----------------------|
-------------------|-----4-----4-----------|--------------4-----4--|
-------------------|-----------------------|-----------------------|
       
-------------------|-------------------|------------------------|
-------------------|-------------------|-----2-----2-2----------|
-------------------|-------------------|-----5-----5-5----------|
-------------------|-------------------|------------------------|
-------------------|-------------------|-----4-----4-4----------|
-------------------|-------------------|------------------------                            "We're all dead!"
-----------------------|-------------------|-------------------|
--------------2-----2--|-------------------|-------------------|
--------------5-----5--|-------------------|-------------------|
-----------------------|-------------------|-------------------|
--------------4-----4--|-------------------|-------------------|
-----------------------|-------------------|-------------------|

(2:58)      
---------------------------|--------------------------|
---------------------------|--------------------------|
---------------------------|--------------------------|
--4-----x--5-----x--3-3----|-----------4--4-----------|
--3-----x--4-----x--2-2----|-----------3--3-----------|
--2-----x--3-----x--1-1----|-----------2--2-----------|
   
--(2)--------(3)-----------|-------------------|--------------------------|
--(2)--------(3)-----------|-------------------|--------------------------|
---5----------6------------|-------------------|--5--------6--------4-----|
---4----------5------------|--8--8--8----------|--4--------5--------3-----|
---3----------4------------|--7--7--7----------|--3--------4--------2-----|
---2----------3------------|--6--6--6----------|--2--------3--------1-----|
  
--------------------------|-------------------------------|----------------|
--------------------------|-------------------------------|----------------|
-----------5--5-----------|--5--------6-------------4--4--|--5----x--6----x|
-----------4--4-----------|--4--------5-------------3--3--|--4----x--5----x|
-----------3--3-----------|--3--------4-------------2--2--|--3----x--4----x|
-----------2--2-----------|--2--------3-------------1--1--|--2----x--3----x|

                                   "I can't..." (3:26)
---------------|-----------------|----------------------------------|
---------------|-----------------|----------------------------------|
--4------------|--5--5-----------|--5--------6-------------4--4--4--|
--3------------|--4--4-----------|--4--------5-------------3--3--3--|
--2------------|--3--3-----------|--3--------4-------------2--2--2--|
--1------------|--2--2-----------|--2--------3-------------1--1--1--|
         
------------------|--------------|-----------------|-----------------------|
------------------|--------------|-----------------|-----------------------|
--5-------6-------|--4--------L--|--5--5-----------|--5--------6-----------|
--4-------5-------|--3--------L--|--4--4-----------|--4--------5-----------|
--3-------4-------|--2--------L--|--3--3-----------|--3--------4-----------|
--2----0--3----0--|--1--------L--|--2--2-----------|--2--------3-----------|
   
-------------------|----------------|--------------------------|
-------------------|----------------|--5--5--5--5--5--5--5--5--|
-------------------|----------------|--6--6--6--6--6--6--6--6--|
--8--8--8----------|----------------|--6--6--6--6--6--6--6--6--|
--7--7--7----------|----------------|--------------------------|
--6--6--6----------|----------------|--------------------------|
   
--------------------------|--------------------------|
--5--5--5--5--5--5--5--5--|--5--5--5--5--5--5--5--5--|
--6--6--6--6--6--6--6--6--|--6--6--6--6--6--6--6--6--|
--6--6--6--6--6--6--6--6--|--7--7--7--7--7--7--7--7--|
--------------------------|--------------------------|
--------------------------|--------------------------|
   
--------------------------|--------------------------|
--4--4--4--4--4--4--4--4--|--5--5--5--5--5--5--5--5--|
--5--5--5--5--5--5--5--5--|--6--6--6--6--6--6--6--6--|
--7--7--7--7--7--7--7--7--|--7--7--7--7--7--7--7--7--|
--------------------------|--------------------------|
--------------------------|--------------------------|
 
--------------------------|--------------------------|
--5--5--5--5--5--5--5--5--|--5--5--5--5--5--5--5--5--|
--6--6--6--6--6--6--6--6--|--6--6--6--6--6--6--6--6--|
--7--7--7--7--7--7--7--7--|--6--6--6--6--6--6--6--6--|
--------------------------|--------------------------|
--------------------------|--------------------------|
   
--------------------------|--------------------------|
--4--4--4--4--4--4--4--4--|--5--5--5--5--5--5--5--5--|
--5--5--5--5--5--5--5--5--|--6--6--6--6--6--6--6--6--|
--6--6--6--6--6--6--6--6--|--6--6--6--6--6--6--6--6--|
--------------------------|--------------------------|
--------------------------|--------------------------|
   
--------------------------|--------------------------|
--5--5--5--5--5--5--5--5--|--5--5--5--5--5--5--5--5--|
--6--6--6--6--6--6--6--6--|--6--6--6--6--6--6--6--6--|
--6--6--6--6--6--6--6--6--|--7--7--7--7--7--7--7--7--|
--------------------------|--------------------------|
--------------------------|--------------------------|
   
--------------------------|--------------------------|
--4--4--4--4--4--4--4--4--|--5--5--5--5--5--5--5--5--|
--5--5--5--5--5--5--5--5--|--6--6--6--6--6--6--6--6--|
--7--7--7--7--7--7--7--7--|--7--7--7--7--7--7--7--7--|
--------------------------|--------------------------|
--------------------------|--------------------------|
  
--------------------------|--------------------------|
--5--5--5--5--5--5--5--5--|--5--5--5--5--5--5--5--5--|
--6--6--6--6--6--6--6--6--|--6--6--6--6--6--6--6--6--|
--7--7--7--7--7--7--7--7--|--6--6--6--6--6--6--6--6--|
--------------------------|--------------------------|
--------------------------|--------------------------|
   
--------------------------|--------------------------|
--4--4--4--4--4--4--4--4--|--5--5--5--5--5--5--5--5--|
--5--5--5--5--5--5--5--5--|--6--6--6--6--6--6--6--6--|
--6--6--6--6--6--6--6--6--|--6--6--6--6--6--6--6--6--|
--------------------------|--------------------------|
--------------------------|--------------------------|
  
--------------------------|--------------------------|
--5--5--5--5--5--5--5--5--|--5--5--5--5--5--5--5--5--|
--6--6--6--6--6--6--6--6--|--6--6--6--6--6--6--6--6--|
--6--6--6--6--6--6--6--6--|--7--7--7--7--7--7--7--7--|
--------------------------|--------------------------|
--------------------------|--------------------------|
  
--------------------------|--------------------------|
--------4--4--4--4--4--4--|--5--5--5--5--5--5--5--5--|
-----5--5--5--5--5--5--5--|--6--6--6--6--6--6--6--6--|
--7-----7--7--7--7--7--7--|--7--7--7--7--7--7--7--7--|
--------------------------|--------------------------|
--------------------------|--------------------------|
   
--------------------------|--------------------------|
--5--5--5--5--5--5--5--5--|--5--5--5--5--5--5--5--5--|
--6--6--6--6--6--6--6--6--|--6--6--6--6--6--6--6--6--|
--7--7--7--7--7--7--7--7--|--6--6--6--6--6--6--6--6--|
--------------------------|--------------------------|
--------------------------|--------------------------|
 
--------------------------|--------------------------|
--4--4--4--4--4--4--4--4--|--5--5--5--5--5--5--5--5--|
--5--5--5--5--5--5--5--5--|--6--6--6--6--6--6--6--6--|
--6--6--6--6--6--6--6--6--|--6--6--6--6--6--6--6--6--|
--------------------------|--------------------------|
--------------------------|--------------------------|
  
--------------------------|--------------------------|
--5--5--5--5--5--5--5--5--|--5--5--5--5--5--5--5--5--|
--6--6--6--6--6--6--6--6--|--6--6--6--6--6--6--6--6--|
--6--6--6--6--6--6--6--6--|--7--7--7--7--7--7--7--7--|
--------------------------|--------------------------|
--------------------------|--------------------------|
   
--------------------------|--------------------------|
--4--4--4--4--4--4--4--4--|--5--5--5--5--5--5--5--5--|
--5--5--5--5--5--5--5--5--|--6--6--6--6--6--6--6--6--|
--7--7--7--7--7--7--7--7--|--7--7--7--7--7--7--7--7--|
--------------------------|--------------------------|
--------------------------|--------------------------|
   
--------------------------|--------------------------|
--5--5--5--5--5--5--5--5--|--5--5--5--5--5--5--5--5--|
--6--6--6--6--6--6--6--6--|--6--6--6--6--6--6--6--6--|
--7--7--7--7--7--7--7--7--|--6--6--6--6--6--6--6--6--|
--------------------------|--------------------------|
--------------------------|--------------------------|
               
--------------------------|-------------------|-------------------|
--4--4--4--4--4--4--4--4--|-------------------|-------------------|
--5--5--5--5--5--5--5--5--|-------------------|-------------------|
--6--6--6--6--6--6--6--6--|-------------------|-------------------|
--------------------------|-------------------|-------------------|
--------------------------|-------------------|-------------------|

Tap to rate this tab
# A B C D E F G H I J K L M N O P Q R S T U V W X Y Z