Song name
# A B C D E F G H I J K L M N O P Q R S T U V W X Y Z

Dillinger Four - Last Communion tab

Dillinger Four - Last Communion

Intro - Guitar 1
E|----------------------------------------------------------|
B|-----------------12121212121212121212121212121212---------|
G|-----------------x-x-x-x-x-x-x-x-x-x-x-x-x-x-x-x----------|
D|-99999999999999999-9-9-9-9-9-9-9-9-9-9-9-9-9-9-9----------|
A|----------------------------------------------------------|
E|----------------------------------------------------------|

Intro - Guitar 2
E|-----------------|-play twice---|-play 4x--------|--------|
B|----------------------------------------------------------|
G|---------------------------------4444---------------------|
D|---------------------------------4444444422222222---------|
A|------------------9999--77-7-7-7-2222444422222222---------|
E|------------------7799--77-7-7-7-----222200000000---------|

Verse/Chorus
  (bass part)      (guitar kicks in)
E|--------------------------------------------(and so on)---|
B|----------------------------------------------------------|
G|-----------------66------4--------------------------------|
D|-----------------666-6-444-76544-44-44-44-76544-44-44-44--|
A|-2---4-------2---446-6-442-76544-44-44-44-76544-44-44-44--|
E|-------4---2-------4-4-22--54322-22-22-22-54322-22-22-22--|

Play the riff from intro, then verse and chorus again (but the guitar
starts from the beginning this time), then the riff from intro again

Bridge
E|----------------------------------------------------------|
B|----------------------------------------------------------|
G|---------------89-----------------------------------------|
D|-7-9-7-9-7-9-7-99-119-89-13-14-119-89-13-16-119-89--------|
A|-7-9-7-9-7-9-7-67-9---6--11-12-9---6--11----9---6---------|
E|-5-7-5-7-5-7-5--------------------------------------------|

Coda
E|-PM*************************------------------------------|
B|----------------------------------------------------------|
G|-8-9-----8-9-----8-9-----8-9-----8-9-----8-9-----8-9------|
D|-8-9-9-6-8-9-9-6-8-9-9-6-8-9-9-6-8-9-9-6-8-9-9-6-8-9-119--|
A|-6-7-9-6-6-7-9-6-6-7-9-6-6-7-9-6-6-7-9-6-6-7-9-6-6-7-9-9--|
E|-----7-4-----7-4-----7-4-----7-4-----7-4-----7-4----------|
Tap to rate this tab
# A B C D E F G H I J K L M N O P Q R S T U V W X Y Z