Guitaretab - guitar tabs
Song name
# A B C D E F G H I J K L M N O P Q R S T U V W X Y Z

Dillinger Four - Noble Stabbings tab

Dillinger Four - Noble Stabbings

Intro1
|-------------
|----(x4)-----
|-------------
|--6-6-6-xxxx-
|--0-0-0-xxxx-
|-------------

Intro
* = 8 times, $ = 4 times
|---------------------|---------------------
|---play4times--------|---------------------
|---------------------|---------------------
|-7-------------------|--7----7-------------
|-5-7-2*-2$-----------|--5----5-------------
|---5-0--0------------|---------------------

Verse
|---------------------------
|---------------------------
|---------------------------
|----------7*---9*----------
|-7*--9*---5----7-----------
|-5---7---------------------   play once PM then play again normal

Pre-Chorus  (guitar 2 plays after chorus)
|---------------------------
|---------------------------
|---------------------------
|-2*-2*--------4*-4*-7*-7*--
|-0--0---4*-4*-2--2--5--5---
|--------2--2---------------  play once

Chorus  (wait one time, be silent)
|---------------------
|---------------------
|---------------------
|------9$--6$---------
|--7$--7---4---4$-----
|--5-----------2------  play 3 times
[ Tab from: http://www.guitaretab.com/d/dillinger-four/34569.html ]
After Chorus   guitar 1          guitar 2
|----------------------------||----------------------------|
|----------------------------||----------------------------|
|----------------------------||--13--13---14--14-----------|
|-----9-9---6*--6*--7*--7*---||----------------------------|
|-7-7-7-7---4---4---5---5----||--11*-11*--12*-12*----------|
|-5-5-0-0--------------------||----------------------------|

verse x2 (first normal. Second PM) , pre-chorus x1, chorus x3 (same way),
after chorus x1 , then guitar 1 plays a bridge your silent

then

Outro
PLAY 3 TIMES
|---------------------
|---------------------
|-----------7*---7*---
|-7*---7*---7----7----
|-7----x----5----5----
|-5----7--------------  
Play 4 TIMES                    PLAY 2 times
|------------------------------|-----------------|---------|-------
|------------------------------|-----------------|---------|-------
|----------------------7*--7*--|---------7*---7*-|-----7*7*|-------
|-7-7-7-7-7---7--7--7--7---7---|-7*--9*--7----7--|-7*5*7-7-|-7777-9
|-7-7-7-7-X---X--X--X--5---5---|-7---9---5----5--|-7-5-5-5-|-7777-9
|-5-5-5-5-7---7--7--7----------|-5---7-----------|-5-3-----|-5555-7

GUitar2
D|-7777-6-6-6--12-12-12-12-12-12-12-12
Play that for the first bar, BUT play the same as guitar1 for the rest.


Hold the last chord.
Related for Noble Stabbings tab
Advertisement will be closed in 10 seconds