Dillon Becker - Fuck Your Boyfriend tab

"Fuck Your Boyfriend" by Dillon Becker
http://www.dillonbecker.com
http://www.youtube.com/LMTLF

Intro / Main Riff

e------------------------------------------------|
B------------------------------------------------|
G--11----11----12-11-----------------12-11-14----|
D-----12----12-------12-14--12-14-12-------------|
A------------------------------------------------|
D------------------------------------------------|

e------------------------------------------------|
B------------------------------------------------|
G--11----11----12-11-----------------12-11-------|
D-----12----12-------12-14--12-14-12------12-----|
A------------------------------------------------|
D------------------------------------------------|


Pre-Verse
e------------------------------------------------|
B------------------------------------------------|
G--77--------77~---------------------------------|
D--77--------77~---------------------------------|
A--55--------55~---------------------------------|
D------------------------------------------------|


Verses
e------------------------------------------------|
B------------------------------------------------|
G--7--777--7-7-7777------------------------------|
D--7--777--7-7-7777----5--555--7-7-7777----------|
A--5--555--5-5-5555----5--555--7-7-7777----------|
D----------------------5--555--7-7-7777----------|

e------------------------------------------------|
B------------------------------------------------|
G--7---------------------------------------------|
D--7-x16--5-----7--------------------------------|
A--5------5-x8--7-x8-----------------------------|
D---------5-----7--------------------------------|
   PM     PM    PM


Pre-Chorus
e------------------------------------------------|
B------------------------------------------------|
G--99--97--7-------------------------------------|
D--99--97--77~-----------------------------------|
A--77--75--57~-----------------------------------|
D-----------5~-----------------------------------|


Chorus
e------------------------------------------------|
B------------------------------------------------|
G--7---------------------------------------------|
D--7-x16--5-----7--------------------------------|
A--5------5-x8--7-x8-----------------------------|
D---------5-----7--------------------------------|


Pre-Breakdown
e------------------------------------------------|
B------------------------------------------------|
G--1111--119~---1111--117~-----------------------|
D--1111--119~----9-9--117~--77--75~--2~----------|
A---9-9---97~----9-9---95~--77--75~--2~----------|
D---------------------------77--75~--2~----------|


Breakdown
e------------------------------------------------|
B------------------------------------------------|
G------------------------------------------------|
D--4-2-00--00-00-----4-2-00-04-00-04-2-0---------|
A--4-2-00--00-00-x3--4-2-00-04-00-04-2-0---------|
D--4-2-00--00-00-----4-2-00-04-00-04-2-0---------|


Ending
e------------------------------------------------|
B------------------------------------------------|
G--7---------------------------------------------|
D--7-7-5~----------------------------------------|
A--5-7-5~----------------------------------------|
D----7-5~----------------------------------------|
Tap to rate this tab
 
# A B C D E F G H I J K L M N O P Q R S T U V W X Y Z