Song name
# A B C D E F G H I J K L M N O P Q R S T U V W X Y Z

Dillon Bethany - Revolutionaries tab

-----------------------------------------------------------------|
-------------------------------12-0------------------------------|
------------0----------7-0-----12--------------0----------7---7--|
---2-0------2----------7-------12------2-0-----2----------7---7--|
--------2-3-3-------s5-----s10-------------2-3-3-------s5---5----|
-0-------------2-3-------------------0------------2-3------------|

-------------------------------------------------------|
-------------------------7-----------------------------|
---0------0--------------7-----------0----------7---7--|
---2------2--------------7----2------2----------7---7--|
------2-3-3-----0-s5-0-5-5-------2-3-3-------s5---5----|
-0-----------2--------------0-----------2-3------------|
                                                         C       B
---------------------------------------------------------3-------2--|
--------------------------------0------------------------5-------4--|
----------0------0-----7--7-----0------0----------7---7--5-------4--|
---2------2------------7--7------------2----------7---7--5-------4--|
------2-3-3---------s5----5--------2-3-3-------s5---5----3-------2--|
-0-----------2-3--------------0-----------2-3-----------------------|

 Em     G       Dsus4   D       C7  B7  Em      G       D
-0------3-------3-------2-------0---2---0-------3-------2--|
-0------3-------3-------3-------1---0---0-------3-------3--|
-0------0-------2-------2-------3---2---0-------0-------2--|     x1
-2------0-------0-------0-------2---1---2-------0-------0--|
-2------2-----------------------3---2---2-------2----------|
-0--2-3-3-------------------------------0--2-3--3----------|

 C              Em                              C              Em
-0------0------------------0-------0--0-0-0-0---0------0-------------------0---0--|
-1----3s5------------------3s5---3s5--5-5-5-5---1----3s5-----------------1-3s5-5--|
-0------0---------0---0-0--0--------------------0------0---------0---0-0-0-0------|      x1
-2----2s4-------2-------2-----------------------2----2s4-------2-------2-2--------|
-3----3s5-------2-------3-----------------------3----3s5-------2-------3----------|
----------------0---2------------------------------------------0---2--------------|

----------------------------------------------------------------|
---------------------7------12-0----0------------------------4--|
---0------0----------7------12-0----0-------0----------7-----4--|        x1
---2------2----------7------12--------0-----2----------7-----4--|
------2-3-3-------s5----s10-------------2-3-3-------s5---5s2----|
-0-----------2-3------------------0------------2-3--------------|

-------------------------------------------------------|
---0---------------------------0-----------------------|
---0------0-------0----7--7----0-----0----------7---7--| x1
----------2p0----------7--7----------2p0--------7---7--|
------2-3-3---------s5-5---------2-3-3-------s5---5----|
-0------------2-3------------0-----------2-3-----------|

--------------------------------------------------------|
---0--------------0-0-----7----0-----------------7------|
---0------0---------0-----7----0------0--------------7--|        x1
----------2p0-------------7-----------2p0------------7--|
------2-3-3------------s5---------2-3-3-------s5---5----|
-0------------2-3------------0------------2-3-----------|

                           C       B
---------------------------3-------2--|
---0------------------7----5-------4--|
---0------0-------------7--5-------4--|  x1
----------2p0-----------7--5-------4--|
------2-3-3--------s5------3-------2--|
-0------------2-3---------------------|

 Em     G       Dsus4   D       C7  B7  Em      G       D
-0------3-------3-------2-------0---2---0-------3-------2--|
-0------3-------3-------3-------1---0---0-------3-------3--|
-0------0-------2-------2-------3---2---0-------0-------2--|     x1
-2------0-------0-------0-------2---1---2-------0-------0--|
-2------2-----------------------3---2---2-------2----------|
-0--2-3-3-------------------------------0--2-3--3----------|

 C              Em                              C              Em                 F#
-0------0------------------0-------0--0-0-0-0---0------0-------------------0---0--2--|
-1----3s5------------------3s5---3s5--5-5-5-5---1----3s5-----------------1-3s5-5--2--|
-0------0---------0---0-0--0--------------------0------0---------0---0-0-0-0------3--|   x1
-2----2s4-------2-------2-----------------------2----2s4-------2-------2-2--------4--|
-3----3s5-------2-------3-----------------------3----3s5-------2-------3----------4--|
----------------0---2------------------------------------------0---2--------------2--|

 G      A       Bm       G       A       Bm
-3------0-------2-2--2-2-3-------0-------2-2--2-2--|
-3------2-------3-3--3-3-3-------2-------3-3--3-3--|
-4------2-------4-4--4-4-4-------2-------4-4--4-4--|     x1
-5------2-------4-4--4-4-5-------2-------4-4--4-4--|
-5------0-------2-2--2-2-5-------0-------2-2--2-2--|
-3-----------------------3-------------------------|

 G      A       Bm       G       A     Bm
-3------0-------2--------3-------0-----2--|
-3------2-------3--------3-------2-----3--|
-4------2-------4--------4-------2-----4--|      x1
-5------2-------4--------5-------2-----4--|
-5------0-------2--------5-------0-----2--|
-3-----------------------3----------------|

 Em     C                   Em      Em     C
-0------0-0-----------------0-0-----0------0-0------------------|
-0------1-1-----------------0-0-----0------1-1------------------|
-0--2p0-0-0-2p0-0-2p0-0-2p0-0-0-----0--2p0-0-0-2p0-0-2p0-0-2p0--|        x1
-2------2-2-----------------2-2-----2------2-2------------------|
-2------3-3-----------------2-2-----2------3-3------------------|
-0--------------------------0-0-----0---------------------------|

 Em     C                   Em      Em     C                   Em
-0------0-0-----------------0-0-----0------0-0-----------------0--|
-0------1-1-----------------0-0-----0------1-1-----------------0--|
-0--2p0-0-0-2p0-0-2p0-0-2p0-0-0-----0--2p0-0-0-2p0-0-2p0-0-2p0-0--|      x1
-2------2-2-----------------2-2-----2------2-2-----------------2--|
-2------3-3-----------------2-2-----2------3-3-----------------2--|
-0--------------------------0-0-----0--------------------------0--|

---------------------------------------------------|
-3s5-3p0-3p0----------------3s5p3-0-3p0---------3--|
-------------2p0-2s4-4s2-0--------------2p0-2s4----|     x3
---------------------------------------------------|
---------------------------------------------------|
---------------------------------------------------|

        `                        C       D
---------------------------------3-------5--|
-3s5-3p0-3p0----------------3s5--5-------7--|
-------------2p0-2s4-4s2-0-------5-------7--|    x1
---------------------------------5-------7--|
---------------------------------3-------5--|
--------------------------------------------|

 Em     C       G       D       Em      C       G       D
-0------0-------3-------2-------0-------0-------3-------2--|
-0------1-------3-------3-------0-------1-------3-------3--|
-0--2p0-0---2p0-0-------2-------0---2p0-0---2p0-0-------2--|     x2
-2------2-------0-------0-------2-------2-------0-------0--|
-2------3-------2---------------2-------3-------2----------|
-0--------------3---------------0---------------3----------|

 Em     C                   Em      Em     C
-0------0-0-----------------0-0-----0------0-0------------------|
-0------1-1-----------------0-0-----0------1-1------------------|
-0--2p0-0-0-2p0-0-2p0-0-2p0-0-0-----0--2p0-0-0-2p0-0-2p0-0-2p0--|        x1
-2------2-2-----------------2-2-----2------2-2------------------|
-2------3-3-----------------2-2-----2------3-3------------------|
-0--------------------------0-0-----0---------------------------|

 Em     C                   Em      Em     C                   Em
-0------0-0-----------------0-0-----0------0-0-----------------0--|
-0------1-1-----------------0-0-----0------1-1-----------------0--|
-0--2p0-0-0-2p0-0-2p0-0-2p0-0-0-----0--2p0-0-0-2p0-0-2p0-0-2p0-0--|      x1
-2------2-2-----------------2-2-----2------2-2-----------------2--|
-2------3-3-----------------2-2-----2------3-3-----------------2--|
-0--------------------------0-0-----0--------------------------0--|

--------------------------------------------------------------------------------------------|
--------------------------------------------------------------------------------------------|
-9--9--9--9--9--9--9--9--9s10-10-10-10s9-9-9--9--9--9--9--9--9--9--9---9s10-10-10-10s9-9-9--|
-7--9--7--9--9--7--9--7--9s10-10-10-10s9-9-9--7--9--7--9--9--7--9--7---9s10-10-10-10s9-9-9--|
----7-----7--7-----7-----7s8--8--8--8-s7-7-7-----7-----7--7-----7------7s8--8--8--8-s7-7-7--|
Tap to rate this tab
# A B C D E F G H I J K L M N O P Q R S T U V W X Y Z