Song name
# A B C D E F G H I J K L M N O P Q R S T U V W X Y Z

Dima Bilan - Believe tab

Dima Bilan - Believe (Eurovision 2008)

(This is the tab of the official video version)

Intro (Violin):

 E |--3-------3-1---3-1-------1-----1--3-----------3-1-------|
 B |----1---------4-------------4-3------4---1---4-----------|
 G |--------------------3------------------3-----------------|
 D |---------------------------------------------------------|
 A |---------------------------------------------------------|
 E |---------------------------------------------------------|


 E |--1--3---4-3-1-------------------------------------------|
 B |---------------4-3-----1---------------------------------|
 G |---------------------------------------------------------|
 D |---------------------------------------------------------|
 A |---------------------------------------------------------|
 E |---------------------------------------------------------|


  Verse (Guitar):


 E |---------------------------------------------------------|
 B |--------4------------4----------3---------3--------------|
 G |------5------------5----------3---------3----------------|
 D |----5------------5----------3---------3------------------|
 A |--3------------3----------1---------1--------------------|
 E |---------------------------------------------------------|


 E |---------------------------------------------------------|
 B |--------4------------4----------3------------------------|
 G |------5------------5----------3--------------------------|
 D |----5------------5----------3----------------------------|
 A |--3------------3----------1------------------------------|
 E |---------------------------------------------------------|


Enjoy!
Tab by OnatGuitar
Tap to rate this tab
 
# A B C D E F G H I J K L M N O P Q R S T U V W X Y Z