Song name
# A B C D E F G H I J K L M N O P Q R S T U V W X Y Z

Dimitri Vegas - Ocarina tab

Dimitri Vegas & Like Mike ft. Wolfpack-Ocarina

e|------------------------------|
B|------------------------------|
G|-5-7-7-8----------8-7-8-------|
D|---------5-10-8-6-------8-1-0-|
A|------------------------------|
E|------------------------------|

e|------------------------------|
B|---6---------8-9-8------------|
G|-5---7---7-8-------10-8-7-5---|
D|-------8----------------------|
A|------------------------------|
E|------------------------------|

This is my first submission to Ultimate guitar.
I think that the tabs are pretty accurate.
No capo and the tuning is standard
Tap to rate this tab
 
# A B C D E F G H I J K L M N O P Q R S T U V W X Y Z