Song name
# A B C D E F G H I J K L M N O P Q R S T U V W X Y Z

Dimmu Borgir - Lepers Among Us tab

Help us improve GuitareTab! Take a short survey!
THis is from an other website!
But enjoy!

Standard Tuning

Intro
|-------------------------------------------------------------------|
|-------------------------------------------------------------------|
|-------------------------------------------------------------------|
|-------------------------------------2-----------------------------|
|-------------------------------------2-----------------------------|
|-222222222-2222222---222222222-2222--0-----------------------------|
  ......... .......   ......... ....                        (2 times)

Riff 1
Gtr 1
|-------------------------------------------------------------------|
|-------------------------------------------------------------------|
|-------------------6-----------------------------------------------|
|----4---5------4-----4-----5---------------------------------------|
|----------4----------------3---------------------------------------|
|-22---2-----22---2-------------------------------------------------|
  ..   .     ..   .
|-------------------------------------------------------------------|
|-------------------------5-----------------------------------------|
|-------------------6-------6---------------------------------------|
|----4---5------4-----4-------5-------------------------------------|
|----------4--------------------------------------------------------|
|-22---2-----22---2-----2-------------------------------------------|
  ..   .     ..   .     .

Gtr 2
|-----------------------------------------------------------------|
|-----------------------------------------------------------------|
|-----------------------------------------------------------------|
|-------------5-------------------2-------------------------------|
|-------------3-------------------2-------------------------------|
|-22222-2222----------22222-2222--0-------------------------------|
  ..... ....          ..... ....                            (4 times)

Riff 2
|------------------------------------------------------------------|
|------------------------------------------------------------------|
|-------9-----------910-10-10-10/8-8-8-----------------------------|
|-2-----9-----2-----910-10-10-10/8-8-8-----------------------------|
|-2-----7-----2-----7-8--8--8--8/6-6-6-----------------------------|
|-0-00--7-----0-00--7-8--8--8--8/6-6-6-----------------------------|
    ..          ..
|------------------------------------------------------------------|
|------------------------------------------------------------------|
|-------9-----------910-10-----------------------------------------|
|-2-----9-----2-----910-10-----------------------------------------|
|-2-----7-----2-----7-8--8-----------------------------------------|
|-0-00--7-----0-00--7-8--8-----------------------------------------|
    ..          ..                                          (2 times)

Play Riff 1 4 times
Play Riff 2 1 time then

Fill 1
|------------------------------------------------------------------|
|------------------------------------------------------------------|
|-------9------------910-10-10-10/8-8-8----------------------------|
|-2-----9------2-----910-10-10-10/8-8-8----------------------------|
|-2-----7------2-----7-8--8--8--8/6-6-6----------------------------|
|-0-00--7------0-00--7-8--8--8--8/6-6-6----------------------------|
    ..           ..

|------------------------------------------------------------------|
|------------------------------------------------------------------|
|----------9-----------910-10--------------------------------------|
|-2--------9-----2-----910-10--------------------------------------|
|-2--------7-----2-----7-8--8--------------------------------------|
|-0-0-0-0--7-----0-00--7-8--8--------------------------------------|
    . . .          ..                                       (1 time)

Riff 3

Gtr 1&2
|-------------------------------------------------------------------|
|-------------------------------------------------------------------|
|-------------------------------------------------------------------|
|-------------------------------------------------------------------|
|----------------------------666666---------------------------------|
|-0000000000000000-6666-8888----------------------------------------|

|-------------------------------------------------------------------|
|-------------------------------------------------------------------|
|-------------------------------------------------------------------|
|-------------------------------------------------------------------|
|--------------------------7h8p7h8p7h8p7----------------------------|
|-11111111111111111-888888------------------------------------------|

|-------------------------------------------------------------------|
|-------------------------------------------------------------------|
|-------------------------------------------------------------------|
|-------------------------------------------------------------------|
|-----------------------------666666--------------------------------|
|-00000000000000000-6666-8888---------------------------------------|

|-------------------------------------------------------------------|
|-------------------------------------------------------------------|
|-------------------------------------------------------------------|
|-------------------------------------------------------------------|
|-------------------------------------------------------------------|
|-11111111111111111-888888-666666-----------------------------------|
                                                            (2 times)

Riff 4
|------------------------------------------------------------------|
|------------------------------------------------------------------|
|--------------------------9---------------------910-10-10-10/8-8-8|
|--------------------------9---------------------910-10-10-10/8-8-8|
|--------------------------7---------------------7-8--8--8--8/6-6-6|
|-0-0-0-0-000-000-0-0-0-0--7----1-1-1-1-111-111--7-8--8--8--8/6-6-6|
  . . . . ... ... . . . .       . . . . ... ...             (4 times)

Play Riff 3 2 times then:

Transition
|-------------------------------------------------------------------|
|-------------------------------------------------------------------|
|-------------------------------------------------------------------|
|-5--7--6-----6----------7--6---------------------------------------|
|-5--5--4-----4----------5--4---------------------------------------|
|-3--5--4-4-4-4----------5--4---------------------------------------|
          . .

Riff 5
|-------------------------------------------------------------------|
|-------------------------------------------------------------------|
|-------------------------------------------------------------------|
|-7-7-7-6---5--7--6---7-7-7-6---5--7--6---7-7-7---------------------|
|-5-5-5-4---5--5--4---5-5-5-4---5--5--4---5-5-5---------------------|
|-5-5-5-4---3--5--4---5-5-5-4---3--5--4---5-5-5---------------------|

Riff 6a
Gtr 1
|-------------------------------------------------------------------|
|-------------------5h6p5-------------------------------------------|
|-------6h7p6-------------------6h7p6-------------------------------|
|--------------------------------------5--7-------------------------|
|-4-444-------4-444-------4-444--------5--5-------------------------|
|--------------------------------------3--5-------------------------|
  . ...       . ...       . ...

|-------------------------------------------------------------------|
|-------------------5h6p5-------------------------------------------|
|-------6h7p6-------------------6h7p6-------------------------------|
|--------------------------------------7--7-------------------------|
|-4-444-------4-444-------4-444--------5--5-------------------------|
|--------------------------------------5--5-------------------------|
  . ...       . ...       . ...

Gtr 2
|-------------------------------------------------------------------|
|-------------------------------------------------------------------|
|-------------------6h7p6-------------------------------------------|
|-------6h7p6-------------------6h7p6--5--7-------------------------|
|-4-444-------4-444-------4-444--------5--5-------------------------|
|--------------------------------------3--5-------------------------|
  . ...       . ...       . ...

|-------------------------------------------------------------------|
|-------------------------------------------------------------------|
|-------------------6h7p6-------------------------------------------|
|-------6h7p6-------------------6h7p6--7--7-------------------------|
|-4-444-------4-444-------4-444--------5--5-------------------------|
|--------------------------------------5--5-------------------------|
  . ...       . ...       . ...                            (2 times)

Riff 6b
Gtr 1
|----------------------------------------------------------4h5p4h5p4|
|----------------------5h6p5h6p5-----------------5h6p5h6p5----------|
|-------6h7p6h7p6----------------------6h7p6h7p6--------------------|
|-------------------------------------------------------------------|
|-4-444-----------4-444----------4-444------------------------------|
|-------------------------------------------------------------------|
  . ...           . ...          . ...

|-------------------------------------------------------------------|
|-----------------------5h6p5h6p5-----------------------------------|
|-------6h7p6h7p6-----------------------6h7p6h7p6-------------------|
|--------------------------------------------------7--7-------------|
|-4-444-----------4-444-----------4-444------------5--5-------------|
|--------------------------------------------------5--5-------------|
  . ...           . ...           . ...

Gtr 2
|--------------------------------------------------------------------|
|-----------------------------------------------------------5h6p5h6p5|
|-----------------------6h7p6h7p6-----------------6h7p6h7p6----------|
|-------6h7p6h7p6-----------------------6h7p6h7p6--------------------|
|-4-444-----------4-444-----------4-444------------------------------|
|--------------------------------------------------------------------|
  . ...           . ...           . ...

|-------------------------------------------------------------------|
|-------------------------------------------------------------------|
|-----------------------6h7p6h7p6-----------------------------------|
|-------6h7p6h7p6-----------------------6h7p6h7p6--7--7-------------|
|-4-444-----------4-444-----------4-444------------5--5-------------|
|--------------------------------------------------5--5-------------|
  . ...           . ...           . ...                     (2 times)

Play Riff 2 one time
Play Fill 1 one time then:

Riff 7
Gtr 1
|-------------------------------------------------------------------|
|--------------------------------------------------------5----------|
|-------------------6------------------------------6-------6--------|
|----4---5------4-----4---5---------4---5------4-----4-------5------|
|----------4----------------4-------------4-------------------------|
|-22---2-----22---2-----2-----2--22---2-----22---2-----2------------|
  ..   .     ..   .     .        ..   .     ..   .     .

Gtr 2
|-------------------------------------------------------------------|
|-------------------------------------------------------------------|
|-------------------------------------------------------------------|
|----------------------------------2--------------------------------|
|----------------------------------2--------------------------------|
|-22222-2222------------22222-222--0--------------------------------|
  ..... ....            ..... ...                          (2 times)

Riff 8
|-------------------------------------------------------------------|
|-------------------------------------------------------------------|
|-------------------------------------------------------------------|
|--------------------5--------------------2-------------------------|
|--------------------3--------------------2-------------------------|
|-222222222-2222222--------222222222-2222-0-------------------------|
  ......... .......        ......... ....

Gtr 1 plays Riff 1 2 times
Gtr 2 plays Riff 8 2 times

Play Riff 6a 2 times then
Play Riff 6b 1 time

Riff 6c
Gtr 1
|-----------------------------------------------------------4h5p4h5p4-|
|-----------------------5h6p5h6p5-----------------5h6p5h6p5-----------|
|-------6h7p6h7p6-----------------------6h7p6h7p6---------------------|
|---------------------------------------------------------------------|
|-4-444-----------4-444-----------4-444-------------------------------|
|---------------------------------------------------------------------|
  . ...           . ...           . ...

|-----------------------------------------------------------4h5p4h5p4-|
|-----------------------5h6p5h6p5-----------------5h6p5h6p5-----------|
|-------6h7p6h7p6-----------------------6h7p6h7p6---------------------|
|---------------------------------------------------------------------|
|-4-444-----------4-444-----------4-444-------------------------------|
|---------------------------------------------------------------------|
  . ...           . ...           . ...

Gtr 2
|---------------------------------------------------------------------|
|-----------------------------------------------------------5h6p5h6p5-|
|-----------------------6h7p6h7p6-----------------6h7p6h7p6-----------|
|-------6h7p6h7p6-----------------------6h7p6h7p6---------------------|
|-4-444-----------4-444-----------4-444-------------------------------|
|---------------------------------------------------------------------|
  . ...           . ...           . ...

|---------------------------------------------------------------------|
|-----------------------------------------------------------5h6p5h6p5-|
|-----------------------6h7p6h7p6-----------------6h7p6h7p6-----------|
|-------6h7p6h7p6-----------------------6h7p6h7p6---------------------|
|-4-444-----------4-444-----------4-444-------------------------------|
|---------------------------------------------------------------------|
  . ...           . ...           . ...

End note
|-------------------------------------------------------------------|
|-------------------------------------------------------------------|
|--6----------------------------------------------------------------|
|--6----------------------------------------------------------------|
|--4----------------------------------------------------------------|
|-------------------------------------------------------------------|

END
Related for Lepers Among Us tab