Song name
# A B C D E F G H I J K L M N O P Q R S T U V W X Y Z

Dimmu Borgir - Unorthodox Manifesto tab

#----------------------------------PLEASE NOTE---------------
#This file is the author's own work and represents their interpretation of the #
#song. You may only use this file for private study, scholarship, or research. #
#------------------------------------------------------------
  
  
Band:  (DIMMU BORGIR)
Album: (DEATH CULT ARMAGEDDON)
Song:  (UNORTHODOX MANIFESTO)

Copyright (c)  (NUCLEAR BLAST) (2003)
Version 1.0 - (220404)

Transcribed By: (JJ82)
Email:          (epicus_furor@hotmail.com)


.  - palm mute           /  - slide up to
  - slide down to       ~  - vibrato
h  - hammer on           b  - Bend
p  - pull off            Suffixes for bend
t  - tap                 f  - full bend    h - half bend
ah - artificial harmonic    q  - quarter bend t - tap bend
*  - see comment         ^  - Hold bend    r release bend
x  - Stuccatto           ~  - vibrato bend
,  - slight palm mute    () - ghost note, sustained note
"  - tremolo note        <> - Trill

Tunning E A D G B E

Riff 1a
|-------------------------------------------------------------------|
|-------------------------------------------------------------------|
|-------------------------34--34------------------------------------|
|----------------------2--2----2------------------------------------|
|-22-2-2-2-2-2-22-2-2--1--------------------------------------------|
|-00-0-0-0-0-0-00-0-0-----------------------------------------------|
  .. . . . . . .. . .                                     (8 times)

Riff 1b
|-------------------------------------------------------------------|
|-------------------------------------------------------------------|
|----------------------------------------34--34---------------------|
|-------------------------------------2--2----2---------------------|
|-------------------------------------1-----------------------------|
|-000-0-0-0-0-0-0-0-0-0-0-000-0-0-0-0-------------------------------|
  ... . . . . . . . . . . ... . . . .                     (3 times)

Fill 1
|-------------------------------------------------------------------|
|-------------------------------------------------------------------|
|-------------------------------------------------------------------|
|-------------------------------------------------------------------|
|-------------------------------------------------------------------|
|-000-0-0-0-0-0-0-0-0-0-0-000000000---------------------------------|
  ... . . . . . . . . . . .........

Riff 2a
|---------------------------------------------------------------|
|---------------------------------------------------------------|
|-----------------------------------------34--------------------|
|-35-5-5--56-6-6--56-6--56-6--2----2--2-------------------------|
|-35-5-5--56-6-6--56-6--56-6--2--2------------------------------|
|-13-3-3--34-4-4--34-4--34-4--0---------------------------------|
                                     . .

|-----------------------------------------------------------------|
|-----------------------------------------------------------------|
|-----------------------34----------------------------------------|
|-56-6--56-6--2----2--2-------------------------------------------|
|-56-6--56-6--2--2------------------------------------------------|
|-34-4--34-4--0---------------------------------------------------|
                   . .                                   (5 times)

Fill 2
|-------------------------------------------------------------|
|-------------------------------------------------------------|
|-----------------------------------------34------------------|
|-35-5-5--56-6-6--56-6--56-6--2----2--2----56-6--56-6---------|
|-35-5-5--56-6-6--56-6--56-6--2--2---------56-6--56-6---------|
|-13-3-3--34-4-4--34-4--34-4--0------------34-4--34-4---------|
                                     . .

Play Riff 1a 4 times then

Riff 1c
|-------------------------------------------------------------------|
|-------------------------------------------------------------------|
|---------------------------------------34--34----------------------|
|-------------------------------------2-2----2----------------------|
|-------------------------------------1-----------------------------|
|-000-0-0-0-0-0-0-0-0-0-0-000-0-0-000-------------------------------|
  ... . . . . . . . . . . ... . . ...                     (3 times)

Play Fill 1 then

Riff 2b
|------------------------------------0--------------------0---|
|------------------------------------0--------------------0---|
|-13-3-3--34-4-4--34-4--34-4-----0---34-4--34-4-----0---------|
|-35-5-5--56-6-6--56-6--56-6--2--2---56-6--56-6--2--2---------|
|-35-5-5--56-6-6--56-6--56-6--2--2---56-6--56-6--2--2---------|
|-13-3-3--34-4-4--34-4--34-4--0--0---34-4--34-4--0--0---------|
                                                           (2 times)

Play Riff 2a 2 times then

Transition 1
|-------------------------------------------------------------------|
|-------------------------------------------------------------------|
|-------------------------------------------------------------------|
|-7-5-6--7-6-3-7----------------------------------------------------|
|-5-5-6--7-6-3-5----------------------------------------------------|
|-5-3-4--5-4-1-5----------------------------------------------------|
  . .    . . .                                             (2 times)

Riff 3a
|-------------------------------------------------------------------|
|-------------------------------------------------------------------|
|-------------------------------------------------------------------|
|-7-5-"6---------7-6-3-"7---------------------------------
|-5-5-"6---------7-6-3-"5---------------------------------|
|-5-3-"4---------5-4-1-"5---------------------------------|
  . .            . . .                                     (2 times)

Riff 3b
|-------------------------------------------------------------------|
|-------------------------------------------------------------------|
|-----7-------------------------------------------------------------|
|---7--------5--"6-----7-6-3-"7---------------------------|
|-5--------5----"6-----7-6-3-"5---------------------------|
|--------3------"4-----5-4-1-"5---------------------------|
  . .    . .                                               (4 times)

Solo 1
Gtr 1                           ah
|-------------------------------------------------------------------|
|-------------------------------------------------------------------|
|-------------------------------------------------------------------|
|-------------------------------6-----------------------------------|
|-7-8-7-8-7-8--5--8-7-8-7-5-7-8-------------------------------------|
|-------------------------------------------------------------------|
  . . . . . .       . . . . . .

|-------------------------------------------------------------------|
|-------------------------------------------------------------------|
|----------------------------------------9-6--7-9-7-----------------|
|---------------------------------7-8-10----------------------------|
|-5-4-5-7-8-5--7-5-7-8-10-7--8-10-----------------------------------|
|-------------------------------------------------------------------|


|-------------------------------------------------------------------|
|-------------------------------------------------------------------|
|-10-9-7-9-10-13-14------13h14h15p14--------------------------------|
|-------------------------------------15-12-14-15-------------------|
|-------------------------------------------------------------------|
|-------------------------------------------------------------------|

|-------------------------------------------------------------------|
|-------------------------------------------------------------------|
|-12h13h14-15p14p13-12h13h14--12h13h14-15p14p13-12h13h14------------|
|-------------------------------------------------------------------|
|-------------------------------------------------------------------|
|-------------------------------------------------------------------|

Gtr 1
|-------------------------------------------------------------------|
|-------------------------------------------------------------------|
|-14-12-10-12-14-12-10--9------14-12-10-12-14--10/x-----------------|
|---------------------------------------------------11/x------------|
|-------------------------------------------------------------------|
|-------------------------------------------------------------------|

Gtr 2
Fill 3
|-------------------------------------------------------------------|
|-------------------------------------------------------------------|
|-------------------------------------------------------------------|
|-----------------------2-3-----------------------------------------|
|--8--7--5--7--8--7--5--0-1-----8--7--5--7--8---8/x--4/x------------|
|-------------------------------------------------------------------|

|-------------------------------------------------------------------|
|--------------10-11-10-----------------------10-11-10--------------|
|---------7-10----------10----------------6-9----------10-----------|
|-------7------------------12-11--------6-----------------12-11-----|
|-5-7-8---------------------------4-5-7-----------------------------|
|-------------------------------------------------------------------|
  . . . . .                       . . . . .

|-------------------------------------------------------------------|
|--------------10-11-10---------------------------------------------|
|---------7-10----------10----------------6-------------------------|
|-------7------------------12-11--------6---------------------------|
|-5-7-8---------------------------4-5-7-----------------------------|
|-------------------------------------------------------------------|
  . . . . .                       . . . . .

|------------------------------12h13h15h17/-------------------------|
|--------------------12h14h15---------------------------------------|
|----------9h11h12--------------------------------------------------|
|-9h11h12-----------------------------------------------------------|
|-------------------------------------------------------------------|
|-------------------------------------------------------------------|

Solo Riff 1
|-------------------------------------------------------------------|
|-------------------------------------------------------------------|
|-------------------------------------------------------------------|
|-7--------6--------2--3--------------------------------------------|
|-5--------4--------0--1--------------------------------------------|
|-------------------------------------------------------------------|

Gtr 2 during Solo 1:
Play Solo riff 1 4 times
Play Fill 3 1 time
Play Solo Riff 2 times then

Riff 4
|-------------------------------------------------------------------|
|-------------------------------------------------------------------|
|-------------------------------------------------------------------|
|-4--4-4-4-4-4-4-4-4-4-4-4-4--3-------------------------------------|
|-2--2-2-2-2-2-2-2-2-2-2-2-2--1-------------------------------------|
|-2--2-2-2-2-2-2-2-2-2-2-2-2--1---2222-3333-------------------------|
     . . . . . . . . . . . .      .... ....                (8 times)

Riff 5
|---------------------------------4-5-4-----------------------------|
|---------------------------------------------5-6-5-----------------|
|-------------------------------------------------------------------|
|-7-------6------2-3--7--------7-----------6------------------------|
|-5-------4------0-1--5------5-----------4--------------------------|
|-------------------------------------------------------------------|
                             . .         . .               (3 times)

Transition 2
|-------------------------------------------------------------------|
|-------------------------------------------------------------------|
|-------------------------------------------------------------------|
|-7-------6------2-3--7-------6-6-6--2-2-3--------------------------|
|-5-------4------0-1--5-------4-4-4--0-0-1--------------------------|
|-------------------------------------------------------------------|
                              . .    . .

Riff 6
|---4--------0------------------------------------------------------|
|---4--------0------------------------------------------------------|
|---4--------0------------------------------------------------------|
|-6-6--7---2-2----2-4-5---------------------------------------------|
|-6-6--7---2-2----2-4-5---------------------------------------------|
|-4-4--5---0-0----0-2-3---------------------------------------------|
                  . .                                      (4 times)

Gtr 1
Solo 2
|-------------------------------------------------------------------|
|-------------------------------------------------------------------|
|--------------7-8-9-8-7--------------------------------------------|
|----------6-9-----------9-8-6-5------------------------------------|
|-5~/x---6-----------------------7-6-4------------------------------|
|------4-------------------------------7-6-4-3~---------------------|
       . . . .
   f/(ah)
|---------------------7---------------------------------------------|
|-*b14r-----------8-9---9-8-----------------------------------------|
|--------------9-----------9-8-6------------------------------------|
|------------9-------------------9-8-6-5----------------------------|
|-------7-10--------------------------------------------------------|
|----------------------------------------3-2-3----------------------|
        .  . . .

* Bend the note before stroking it and release slowly, also use
artificial harmonics...

|--------7-------------7-------------7-------------7----------------|
|---9-11---11-9---9-11---11-9---9-11---11-9---11-9---11-9-----------|
|-8-------------8-------------8-------------8-----------------------|
|-------------------------------------------------------------------|
|-------------------------------------------------------------------|
|-------------------------------------------------------------------|

|--------7-------------7-------------7------------------------------|
|---9-11---11-9---9-11---11-9---11-9---11-9---9-11-8----------------|
|-9-------------9-------------9-------------9--------8--------------|
|------------------------------------------------------9------------|
|-------------------------------------------------------------------|
|-------------------------------------------------------------------|

       f/(ah)
|-------------------------------------------------------------------|
|------*b14r--------------------------------------------------------|
|-------------------------------------------------------------------|
|-6-----------------------------------------------------------------|
|-------------------------------------------------------------------|
|-------------------------------------------------------------------|

* As above...

Gtr 2
Solo Riff 2
|-------------------------------------------------------------------|
|-------------------------------------------------------------------|
|-------------------------------------------------------------------|
|-------------------------------------------------------------------|
|-------------------------------------------------------------------|
|-4-4-4-4-4-4-4-4-4-4-4-4-4-4-4-4-5-5-5-5---------------------------|
  . . . . . . . . . . . . . . . . . . . .

|-------------------------------------------------------------------|
|-------------------------------------------------------------------|
|-------------------------------------------------------------------|
|-------------------------------------------------------------------|
|-------------------------------------------------------------------|
|-0-0-0-0-0-0-0-0-0-0-0-0-0-0-0-0--0-0-2-3-3-3----------------------|
  . . . . . . . . . . . . . . . .  . . . . . .             (4 times)

Play Riff 6 4 times then

Gtr 1
Riff 7
|-------------------------------------------------------------------|
|---------------------------------12/11--12--8----------------------|
|-------------------12/11--12--9------------------------------------|
|-------------------------------------------------------------------|
|-6/4-7-2-6/4-6-2---10/-9--10--7--10/-9--10--9----------------------|
|-7/6-6-4-7/6-7-4---------------------------------------------------|

|-------------------------------------------------------------------|
|---------------------------------------12/11--8--12--11--12--------|
|-------------------------12/11--12--9------------------------------|
|-------------------------------------------------------------------|
|-6/4-7-2-6/4-6-2--6-4-6--10/-9--10--7--10/-9--9--10---9--10--------|
|-7/6-6-4-7/6-7-4--7-6-7--------------------------------------------|
                                                           (2 times)

Gtr 2 plays Solo Riff 2 4 times while Gtr 1 plays Riff 7

The song fades out with Riff 6

END!
Tap to rate this tab
# A B C D E F G H I J K L M N O P Q R S T U V W X Y Z