Guitaretab - guitar tabs
Song name
# A B C D E F G H I J K L M N O P Q R S T U V W X Y Z

Dimmu Borgir - Progenies Of The Great Apocalypse tab

progenies of the great apocalypse
Dimmu Borgir

email me if theres a mistake
chito6312@yahoo.com

I use a seven string guitar.so its a piece of cake:)

Tuning B E A D G B E

Intro (0:00) play 8 times
|---------------------------|
|---------------------------|
|---------------------------|
|---------------------------|
|-6--6--6--6----6--6--6--6--|
|-6--6--6--6----6--6--6--6--|
|-4--4--4--4----4--4--4--4--|
  .  .  .  .    .  .  .  .


Riff 1a (0:28)
|-------------------------------------------------------------------|
|-------------------------------------------------------------------|
|----------------------------------7--------------------------------|
|----------------------------------7----------------9/10-10-10-10\9-|
|-9--------------------------------5-555-555-555-77-7/8--8--8--8-\7-|
|-9-----------------------------------------------------------------|
|-7-777-777-777-777-777-777-777-77----------------------------------|
    ... ... ... ... ... ... ... ..   ... ... ... ...     .  .

----------------------|
----------------------|
----------------------|
-9-9-9\7-7-7-7\6-6-6--|
-7-7-7\5-5-5-5\4-4-4--|
----------------------|
----------------------|
 . .     . .     . .

Riff 1b (0:34)
|-------------------------------------------------------------------|
|-------------------------------------------------------------------|
|-------------------------------------------------------------------|
|----------------------------------8--------------------------------|
|-9--------------------------------8----------------10/11-11-11-11\-|
|-9--------------------------------6-666-666-666-88-8-/9--9--9--9-\-|
|-7-777-777-777-777-777-777-777-77----------------------------------|
    ... ... ... ... ... ... ... ..   ... ... ... ...      .  .

-----------------------------|
-----------------------------|
-----------------------------|
-----------------------------|
-10-10-10-10\8-8-8-8\7-7-7-7-|
-8--8--8--8-\6-6-6-6\5-5-5-5-|
-----------------------------|
    .  .       . .     . .

Riff 1a x 1 (0:41)

Riff 1c (0:48)
|-------------------------------------------------------------------|
|-------------------------------------------------------------------|
|----------------------------------10------10------10----10---10----|
|----------------------------------10------10------10----10---10----|
|-9--------------------------------8-------8-------8-----8----8-----|
|-9--------------------------------------66------66----66---66------|
|-7-777-777-777-777-777-777-777-77----------------------------------|
    ... ... ... ... ... ... ... ..       ..      ..    ..   ..


Riff 2a (0:55)
|-------------------------------------------------------------------|
|-------------------------------------------------------------------|
|----------------------------------7--------------------------------|
|----------------------------------7----------------9/10-10-10-10\9-|
|-9--------------------------------5-55555555555/7777/8--8--8--8-\7-|
|-9-----------------------------------------------------------------|
|-7-777777777777777777777777777777----------------------------------|
    ..............................   ...............     .  .

----------------------|
----------------------|
----------------------|
-9-9-9\7-7-7-7\6-6-6--|
-7-7-7\5-5-5-5\4-4-4--|
----------------------|
----------------------|
 . .     . .     . .

Riff 2b (1:01)
|-------------------------------------------------------------------|
|-------------------------------------------------------------------|
|-------------------------------------------------------------------|
|----------------------------------8--------------------------------|
|-9--------------------------------8----------------10/11-11-11-11\-|
|-9--------------------------------6-66666666666/8888-/9--9--9--9-\-|
|-7-777777777777777777777777777777----------------------------------|
    ..............................   ...............      .  .

-----------------------------|
-----------------------------|
-----------------------------|
-----------------------------|
-10-10-10-10\8-8-8-8\7-7-7-7-|
-8--8--8--8-\6-6-6-6\5-5-5-5-|
-----------------------------|
    .  .       . .     . .

Riff 2a x 1 (1:08)

Riff 2c (1:15)
|-------------------------------------------------------------------|
|-------------------------------------------------------------------|
|----------------------------------10------10------10----10---10----|
|----------------------------------10------10------10----10---10----|
|-9--------------------------------8-------8-------8-----8----8-----|
|-9--------------------------------------66------66----66---66------|
|-7-777777777777777777777777777777----------------------------------|
    ..............................       ..      ..    ..   ..

Intro x 1 (1:22)
Riff 2a x 1 (1:49)
Riff 2b x 1 (1:56)
Riff 2a x 1 (2:03)
Riff 2c x 1 (2:10)

Riff 3a (2:16)
|-----------------------------------|
|-----------------------------------|
|-----------------------------------|
|-----------------------------------|
|-4------2--4--5--4--5--4--2--------|
|-4------2--4--5--4--5--4--2--------|
|-2------0--2--3--2--3--2--0--------|
         .  .  .  .  .  .

Riff 3b (2:24)
|---------------------------------------|
|---------------------------------------|
|---------------------------------------|
|--------------------------4-----5------|
|-4------2--4--5--4--5--4--4-----5------|
|-4------2--4--5--4--5--4--2-----3------|
|-2------0--2--3--2--3--2---------------|
         .  .  .  .  .  .

Riff 3a x 1 (2:31)
Riff 3b x 1 (2:39)

Riff 4a (2:45)
|--------------------------------------------------------------------|
|--------------------------------------------------------------------|
|--------------------------------------------------------------------|
|--------------------------------------------------------------------|
|-4----4444444444444---4444444444444---2222222222222---2222222222222-|
|-4------------------------------------------------------------------|
|-2------------------------------------------------------------------|
  .    .............   .............   .............   .............
[ Tab from: http://www.guitaretab.com/d/dimmu-borgir/104685.html ]
|--------------------------------------------------------------------|
|--------------------------------------------------------------------|
|--------------------------------------------------------------------|
|--------------------------------------------------------------------|
|-4------------------------------------------------------------------|
|-4------------------------------------------------------------------|
|-2----2222222222222---2222222222222---0000000000000---0000000000000-|
  .    .............   .............   .............   .............


---------------------------------------------------------------|
---------------------------------------------------------------|
---------------------------------------------------------------|
---------------------------------------------------------------| gt 1
---------------------------------------------------------------|
---------------------------------2222222222222---3333333333333-|
-2222222222222---2222222222222---------------------------------|
 .............   .............   .............   .............

---------------------------------------------------------------|
---------------------------------------------------------------|
---------------------------------------------------------------|
---------------------------------------------------------------| gt 2
-4444444444444---4444444444444---------------------------------|
---------------------------------2222222222222---3333333333333-|
---------------------------------------------------------------|
 .............   .............   .............   .............

Riff 4b (2:59)
|--------------------------------------------------------------------|
|--------------------------------------------------------------------|
|--------------------------------------------------------------------|
|--------------------------------------------------------------------|
|-4--4--4---------------4--4-4--4---------------2--2--2--------------|
|-4--4--4---------------4--4-4--4---------------2--2--2--------------|
|-2--2--2--222222222222-2--2-2--2-222222222222--0--0--0--00000000000-|
  .  .  .  ............ .  . .  . ............  .  .  .  ...........

|--------------------------------------------------------------------|
|--------------------------------------------------------------------|
|--------------------------------------------------------------------|
|--------------------------------------------------------------------|
|-4--4--4--444444444444-4--4-4--4-444444444444--2--2--2--22222222222-|
|-4--4--4---------------4--4-4--4---------------2--2--2--------------|
|-2--2--2---------------2--2-2--2---------------0--0--0--------------|
  .  .  .  ............ .  . .  . ............  .  .  .  ...........

----------------------------|
----------------------------|
----------------------------|
----------------------------|
----2--2-2--2-2222222222222-| gtr 1
----2--2-2--2---------------|
-00-0--0-0--0---------------|
 .. .  . .  . .............

----------------------------|
----------------------------|
----------------------------|
----------------------------|
----2--2-2--2---------------| gtr 2
----2--2-2--2---------------|
-00-0--0-0--0-0000000000000-|
 .. .  . .  . .............

Riff 4c (3:07)
|--------------------------------------------------------------------|
|--------------------------------------------------------------------|
|--------------------------------------------------------------------|
|-----------------------------------------------4--4--4--------------|
|-4--4--4---------------4--4-4--4---------------4--4--4--------------|
|-4--4--4---------------4--4-4--4---------------2--2--2--22222222222-|
|-2--2--2--222222222222-2--2-2--2-222222222222-----------------------|
  .  .  .  ............ .  . .  . ............  .  .  .  ...........

|--------------------------------------------------------------------|
|--------------------------------------------------------------------|
|--------------------------------------------------------------------|
|-----------------------------------------------4--4--4--------------|
|-4--4--4--444444444444-4--4-4--4-444444444444--4--4--4--------------|
|-4--4--4---------------4--4-4--4---------------2--2--2--22222222222-|
|-2--2--2---------------2--2-2--2------------------------------------|
  .  .  .  ............ .  . .  . ............  .  .  .  ...........

----------------------------|
----------------------------|
----------------------------|
----5--5-5--5---------------|
----5--5-5--5---------------| gtr 1
-22-3--3-3--3-3333333333333-|
----------------------------|
 .. .  . .  . .............

----------------------------|
----------------------------|
----------------------------|
----5--5-5--5---------------|
----5--5-5--5---------------| gtr 2
-22-3--3-3--3-3333333333333-|
----------------------------|
 .. .  . .  . .............


Orchestra and vocals only (3:14  4:12)

Riff 5a (4:12)
|-----------------------------------------|
|-----------------------------------------|
|-----------------------------------------|
|-----------------------------------------|
|-----------------------------------------| gtr 1
|-4"--------2"--------4"--------2"--------|
|-2"--------0"--------2"--------0"--------|

|-----------------------------------------|
|-----------------------------------------|
|-----------------------------------------|
|-----------------------------------------|
|-4"--------2"--------4"--------2"--------| gtr 2
|-----------------------------------------|
|-----------------------------------------|
  .         .         .         .

Riff 5b (4:26)
|--------------------------------------------------------------------|
|--------------------------------------------------------------------|
|--------------------------------------------------------------------|
|--------------------------------------------------------------------|
|-4--4--4--4--4-4--4-4--4--4--4-4--4-4-2--2--2--2--2-2--2-2--2--2--2-|
|-4--4--4--4--4-4--4-4--4--4--4-4--4-4-2--2--2--2--2-2--2-2--2--2--2-|
|-2--2--2--2--2-2--2-2--2--2--2-2--2-2-0--0--0--0--0-0--0-0--0--0--0-|
  .  .  .  .  . .  . .  .  .  . .  . . .  .  .  .  . .  . .  .  .  .

---------|
---------|
---------|
---------|
-2--2-2--|
-2--2-2--|
-0--0-0--|
 .  . .

Riff 5c (4:33)
|----------------------------------------------------------------|
|----------------------------------------------------------------|
|----------------------------------------------------------------|
|----------------------------------------------------------------|
|-4--4--4--4--4-4--4-4--4--4--4-4--4-4-2--2--2--2----2--2--2--2--|
|-4--4--4--4--4-4--4-4--4--4--4-4--4-4-2--2--2--2----2--2--2--2--|
|-2--2--2--2--2-2--2-2--2--2--2-2--2-2-0--0--0--0----0--0--0--0--|
  .  .  .  .  . .  . .  .  .  . .  . . .  .  .  .    .  .  .  .

Intro x 1 (4:40)
Scream (5:08)
End (5:18)
Related for Progenies Of The Great Apocalypse tab