Song name
# A B C D E F G H I J K L M N O P Q R S T U V W X Y Z

Dimmu Borgir - Stormblast Live tab

dimmu borgir
stormblast live

tuning (EADGBe)


INTRO                                      4x
e|-------------------------------------------|
B|-------------------------------------------|
G|-------------------------------------------|
D|-44444444444444444444----------------------|
A|-22222222222222222222544444444444444444444-|
E|---------------------322222222222222222222-|

Keyboard fill 1                            2x
e|-------------------------------------------|
B|-------------------------------------------|
G|-4--------------------5--4--2-----0-----2--|
D|-------------------------------------------|
A|-------------------------------------------|
E|-------------------------------------------|

intro 2x
keyboard fill 1 2x

Keyboard transcribed for guitar
e|-------------------------------|
B|-------------------------------|
G|-------------2-----------------|
D|-2-----4--5-----5--4---0----5--|
A|-------------------------------|
E|-------------------------------|

Riff 3
e|-------------------------------------------------|
B|-------------------------------------------------|
G|-------------------------------------------------|
D|-------------------------------------------------|
A|-------------------------------------------------|
E|-5-5-5-5-5-5-5-5-5-5-5-5-1-1-1-1-1-1-3-3-3-3-3-3-|
   . . . . . . . . . . . . . . . . . . . . . . . .

Riff 4 
e|----------------------------------|
B|----------------------------------|
G|----------------------------------|
D|-2---2-2-4---4-4-5---5-5-4---5-4--|
A|-2---2-2-4---4-4-5---5-5-4---5-4--|
E|-0---0-0-2---2-2-3---3-3-2---3-2--|

Riff 3
Riff 4

Solo riff A                     2x Solo riff B                      2x
e|--------------------------------|-----------------------------------|
B|--------------------------------|-----------------------------------|
G|--------------------------------|-----------------------------------|
D|-2--2-2-4-2-0-4-3-2--2-2--2-2-2-|-5--5-5-5--5-4--2--4--4-4-4--4-2-0-|
A|--------------------------------|-----------------------------------|
E|--------------------------------|-----------------------------------|
                . .

ending
e|-----------------------------------|
B|-----------------------------------|
G|----------------2/4-4-4-4--4--4--4-|
D|-5--5-5-5--5-4---------------------|
A|-----------------------------------|
E|-----------------------------------|

e|---|
B|-0-|
G|-0-|
D|-0-|
A|-0-|
E|-0-|

Tap to rate this tab
 
# A B C D E F G H I J K L M N O P Q R S T U V W X Y Z