Song name
# A B C D E F G H I J K L M N O P Q R S T U V W X Y Z

Dimmu Borgir - Grotesquery Conceiled tab

2nd Solo. I didn't do the first because I didn't want to deal with the echo/reverb effect. 

Critique and corrections are very welcome.

e|------------------------------------------------------------------------------------------------|
B|------------------------------------------------------------------------------------------------|
G|------------------------------------------------------------------------------------------------|
D|---------10-13-10----------------------------6-9-6-----------------------14-17-14---------------|
A|------10----------10-----------------------6-------6------------------14----------14---------10-|
E|-8-11----------------11-10-11-10tr11---4-7-----------7-6-7-6~---12-15----------------15-12-7----|

e|----------------------------------------------------15-16-18-16-15------------------------------|
B|-------------------------------------------14-16-17----------------17-16-14---------------------|
G|-------------------------12-13-15-13-15-16----------------------------------16-15-14h16p14------|
D|----------------11-13-14------------------------------------------------------------------------|
A|-11h13p11-13-14---------------------------------------------------------------------------------|
E|------------------------------------------------------------------------------------------------|

e|-------------------------------13h17p13----------------------------------------18p13------------|
B|----------------------------15----------15-------------------------------------------14-13------|
G|-------------------------14----------------14----------------------------------------------15---|
D|-17-14-13-------------15----------------------15------------------------------------------------|
A|----------16-14-13-17----------------------------17~--------------------------------------------|
E|------------------------------------------------------/10--12--13~---12~--10~-------------------|

e|-------13-/-9h13p9------------------------------------------------------|
B|-13-14-------------11------------------------------------------8br(8)br-|
G|----------------------10p0-5naturalharmonicwhammy-------7-10-7----------|
D|----------------------------------------------------7-------------------|
A|------------------------------------------------------8-----------------|
E|--------------------------------------------------5---------------------|

e|----------------------------------------15-20p15-/-11h15p11h15p11-----------|
B|-6h8p6-5---6-6-5--6--9-8-9-9-/-13~-15h16-------------------------13------13-|
G|-------------------------------------------------------------------12--12---|
D|---------------------------------------------------------------------13-----|
A|----------------------------------------------------------------------------|
E|----------------------------------------------------------------------------|

e|-----------------------------------15h19p15------------------12-14p12--------------12-|
B|-/-16-15h16p15-13-12------------------------17-------------12---------12------12------|
G|------------------------15-----13--------------16-\-12---12-------------12--12--------|
D|-------------------------------------------------------14-----------------14----------|
A|--------------------------------------------------------------------------------------|
E|--------------------------------------------------------------------------------------|

e|--------------------------------------------------------------------------|
B|-16p12--------------------------------------------------------------------|
G|-------13p12-------------------------------9h12-/-15p12-------------------|
D|-------------14p13-11-/-9-/-8-6~------8h11-------------14p11--------------|
A|---------------------------------6h10------------------------13p10-/-9h13-|
E|--------------------------------------------------------------------------|

e|--------------------------------------------------------------------------|
B|--------------------------------------------------------------------------|
G|-------12h15-/-18p15-------------------15-/-21p18h19p18-------------------|
D|-11h14---------------17p14----------14------------------20p17-------------|
A|---------------------------16p13h16---------------------------19p16~------|
E|--------------------------------------------------------------------------|

e|--------------------------------------------------------------------------|
B|--------------------------------------------------------------------------|
G|-----------------------------------12br(12)br-12h14p12-9-10-10-9-10-------|
D|--------------------------12----12----------------------------------------|
A|-12-------13-16-13~-12-------12-------------------------------------------|
E|----13-10--------------13-------------------------------------------------|
   .  .  .

e|------------------------------|
B|------------------------------|
G|-10-/-13-12-10-\--------------|
D|------------------------------|
A|------------------------------|
E|------------------------------|


| /  slide up
| \  slide down
| h  hammer-on
| p  pull-off
| ~  vibrato
| +  harmonic
| x  Mute note
===============================================================================
Tap to rate this tab
# A B C D E F G H I J K L M N O P Q R S T U V W X Y Z