Song name
# A B C D E F G H I J K L M N O P Q R S T U V W X Y Z

Dimmu Borgir - Eradication Instincts Defined tab

Band:  Dimmu Borgir
Album: Death Cult Armageddon
Song:  Eradication Instincts Defined

Copyright (c) Nuclear Blast (2003)

Key
.  - palm mute
/  - slide up to
\  - slide down to
~  - let ring


Just so you know, follow the sequence I included at the bottom of the
tab, it shows how many times to play each part and when. I found it somewhat
difficult tabbing this, at times the parts are hard to hear. Im sure
that Silenoz used his 7 string because some parts sound very low. The
part from 5:05 to 6:25 gave me some problems, it's as close as I could get
it for now.


Tuning E A D G B E

A1-a                   A1-b
|-------------------||---------------------|
|-------------------||---------------------|
|-------------------||---------------------|
|4-44-4/5~---7-7-7-8||4-44-4/5~---8-8-8-8-4|
|2-22-2/3~---5-5-5-8||2-22-2/3~---8-8-8-8-4|
|2-22-2/3~---5-5-5-6||2-22-2/3~---6-6-6-6-2|
 . .. .      . . . .  . .. .      . . . .

A2
|-----------------|
|-----------------|
|-----------------|
|4-44-4/5~---3-4-6|
|2-22-2/3~---3-4-6|
|2-22-2/3~---1-2-4|
 . .. .

B1-a                     B1-b
|----------------------||----------------|
|----------------------||----------------|
|----------------------||----------------|
|7-77-7-77-\-33-3/4--7~||7-77-7-77--3-4-6|
|7-77-7-77-\-33-3/4--5~||7-77-7-77--3-4-6|
|5-55-5-55-\-11-1/2--5~||5-55-5-55--1-2-4|

B2
|-----|
|-----|
|-----|
|3-4-7|
|3-4-7|
|1-2-5|

A3
|---------------|
|---------------|
|---------------|
|4-44-4-5--4-5-7|
|2-22-2-3--4-5-7|
|2-22-2-3--2-3-5|

(Lifes value is point below zero.)

C1
|---------------------------------------|
|---------------------------------------|
|---------------------------------------|
|7~~\4--7----7-77-7-7~------------------|
|7~~\4--5----5-55-5-5~------------------|
|5~~\2--5----5-55-5-5~------------------|
             . .. .
C2
|----------------------------|
|----------------------------|
|----------------------------|
|7~~-4-4-4--7-7-7---7-77-7-7~|
|7~~-4-4-4--5-5-5---5-55-5-5~|
|5~~-2-2-2--5-5-5---5-55-5-5~|
     . .    . .     . .. .

D1
(As the perfect tool to destroy mankind)
 This riff played from 3:43 - 4:04)
|----------------------------|
|----------------------------|
|----------------------------|
|10~-4-4-4--7-7-7---7-77-7-7~|
|10~-4-4-4--5-5-5---5-55-5-5~|
|-8~-2-2-2--5-5-5---5-55-5-5~|
     . .    . .     . .. .

D2
(A living, hate smoldering abyss)
|----------------|
|----------------|
|----------------|
|10~-4-4-4--7-7-7|
|10~-4-4-4--5-5-5|
|-8~-2-2-2--5-5-5|
     . .    . .

E1
(Nurtured through centuries...)
|-----------|
|-----------|
|-----------|
|5~-7~--4--7|
|3~-7~--4--5|
|3~-5~--2--5|

|----------------------|
|----------------------|
|----------------------|
|5~-7~--4--7--7-77-7-7~|
|3~-7~--4--5--5-55-5-5~|
|3~-5~--2--5--5-55-5-5~|
              . .. .

 (endorse our fate...)
|--------------------------|
|--------------------------|
|--------------------------|
|5~-4-4-4--7-7-7--7-77-7-7~|
|3~-4-4-4--5-5-5--5-55-5-5~|
|3~-2-2-2--5-5-5--5-55-5-5~|
    . .    . .    . .. .

 (killing all!!!!!)
|---------------|
|---------------|
|---------------|
|5~-4-4-4--7-7-7|
|3~-4-4-4--5-5-5|
|3~-2-2-2--5-5-5|
    . .    . .

(5:05)
F1       F2
|-------|---|
|-------|---|
|-------|---|
|5~--3~-|-6-|
|3~--1~-|-6-|
|-------|-4-|

F3              F4    F5
|--------------|-----|---|
|--------------|-----|---|
|5--5-5--5-5--5|-5-4-|---|
|3--3-3--3-3--3|-3-2-|-6-|
|3--3-3--3-3--3|-----|-4-|
    .    .    .


Ending
(Killing all!!)
|----------------------------|
|----------------------------|
|----------------------------|
|7-77-7-77--3-6-10-10-9-7-7\\|
|7-77-7-77--3-6-10-10-9-7-7\\|
|5-55-5-55--1-4--8--8-7-5-5\\|

Order of play:
A1 a and b -(7x)
A1 a -------(1x)
A2 ---------(1x)
B1 a and b -(4x)
B2 ---------(1x)
A1 a and b -(3x)
A1 a -------(1x)
A3 ---------(1x)
C1 ---------(1x)
C2 ---------(3x)
D1 ---------(3x)
D2 ---------(1x)
E1 ---------(1x)
F1 ---------(4x)
F2 ---------(1x)
F3 ---------(1x)
F4 ---------(1x)
F3 ---------(1x)
F5 ---------(1x)
F3 ---------(1x)
F4 ---------(1x)
F3 ---------(1x)
F5 ---------(1x)
F1 ---------(4x)
A1 a and b -(3x)
A1 a -------(1x)
A2 ---------(1x)
B1 a and b -(1x)
B1 a ----------|(1x)
Ending -----(1-|
Tap to rate this tab
 
# A B C D E F G H I J K L M N O P Q R S T U V W X Y Z