Song name
# A B C D E F G H I J K L M N O P Q R S T U V W X Y Z

Dimmu Borgir - Entrance tab

#----------------------------------PLEASE NOTE---------------------------------#
#This file is the author's own work and represents their interpretation of the #
#song. You may only use this file for private study, scholarship, or research. #
#------------------------------------------------------------------------------#

ENTRANCE
As recorded by Dimmu Borgir
(From the 1997 Album ENTHRONE DARKNESS TRIUMPHANT)

Transcribed by Hannes_666@giga4u.de
	

Words and Music by Dimmu Borgir

A5
5 7 7 x 5 x
	
Dm
x 5 7 7 6 x
	
F5
1 3 3 x 1 x
	
E5
x 7 9 x x x
C5
x 3 5 x x x
	
D5
x 5 7 x x x
	
C5(type 2)
x 3 5 5 x x
	
D5(type 2)
x 5 7 7 x x
E5(type 2)
x 7 9 9 x x
	
F5(type 2)
x 8 10 10 x x
	
G5
x 10 12 12 x x

Gtr I (E A D G B E) - 'Guitar 1'
Gtr II (E A D G B E) - 'Guitar 2'
Gtr III (E A D G B E) - 'Aahs'
Gtr IV (E A D G B E) - 'Keyboard 1'
Gtr V (E A D G B E) - 'Keyboard 2'
Gtr VI (E A D G B E) - 'Music Box'

 Intro
  Q=135
  A5                          Dm         F5
 4/4
  Gtr III
  W                           Q.          H                +E
  |                           |           |                 |
  /                           /           /                 /

  Gtrs I, II
  E S S S S E S S S S E S S   E  S S S S  E  S  S  S  S  E  S  S
|---------------------------|------------------------------------|
|---------------------------|------------------------------------|
|---------------------------|------------------------------------|
|---------------------------|-7--7-7-7-7-10-10-10-10-10-10-10-10-|
|-7-7-7-7-7-7-7-7-7-7-7-7-7-|-5--5-5-5-5--8--8--8--8--8--8--8--8-|
|-5-5-5-5-5-5-5-5-5-5-5-5-5-|------------------------------------|


  A5                          Dm         F5
  W                           Q.          H                +E
  |                           |           |                 |
  /                           /           /                 /

  E S S S S E S S S S E S S   E  S S S S  E  S  S  S  S  E  S  S
|---------------------------|---------------------------------------|
|---------------------------|---------------------------------------|
|---------------------------|---------------------------------------|
|---------------------------|-7--7-7-7-7-10-10-10-10-10-10-10-10----|
|-7-7-7-7-7-7-7-7-7-7-7-7-7-|-5--5-5-5-5--8--8--8--8--8--8--8--8----|
|-5-5-5-5-5-5-5-5-5-5-5-5-5-|---------------------------------------|


  A5                          Dm         F5
  W                           Q.          H                +E
  |                           |           |                 |
  /                           /           /                 /

  E S S S S E S S S S E S S   E  S S S S  E  S  S  S  S  E  S  S
|---------------------------|------------------------------------|
|---------------------------|------------------------------------|
|---------------------------|------------------------------------|
|---------------------------|-7--7-7-7-7-10-10-10-10-10-10-10-10-|
|-7-7-7-7-7-7-7-7-7-7-7-7-7-|-5--5-5-5-5--8--8--8--8--8--8--8--8-|
|-5-5-5-5-5-5-5-5-5-5-5-5-5-|------------------------------------|


  A5                          Dm         F5
  W                           Q.          H                +E
  |                           |           |                 |
  /                           /           /                 /

  E S S S S E S S S S E S S   E  S S S S  E  S  S  S  S  E  S  S
|---------------------------|---------------------------------------||
|---------------------------|---------------------------------------||
|---------------------------|---------------------------------------||
|---------------------------|-7--7-7-7-7-10-10-10-10-10-10-10-10----||
|-7-7-7-7-7-7-7-7-7-7-7-7-7-|-5--5-5-5-5--8--8--8--8--8--8--8--8----||
|-5-5-5-5-5-5-5-5-5-5-5-5-5-|---------------------------------------||


 Verse 1
  W               H       H        W               H        H
|--------------|-----------------|--------------|---------------------|
|--------------|-----------------|--------------|---------------------|
|--------------|--7------10------|--------------|--7-------10---------|
|-7------------|--7------10------|-7------------|--7-------10---------|
|-7------------|--5-------8------|-7------------|--5--------8---------|
|-5------------|-----------------|-5------------|---------------------|
|
| Gtr III
| W               W                W               H.           Q
|--------------|-----------------|--------------|---------------5pb8r=|
|--------------|-----------------|--------------|---------------------|
|--------------|-----------------|--------------|---------------------|
|--------------|-----------------|--------------|---------------------|
|--------------|-----------------|--------------|---------------------|
|--------------|-----------------|--------------|---------------------|
|
| Gtr IV
| Q   H     Q     Q   H       Q    Q   H     Q     Q    H       Q
|----20----20--|-----------------|----20----20--|---------------------|
|----22----22--|-----18------22--|----22----22--|------18------22-----|
|--------------|-----19------22--|--------------|------19------22-----|
|--------------|-----------------|--------------|---------------------|
|--------------|-17--------------|--------------|-17------------------|
|--------------|-----------------|--------------|---------------------|


  W               H       H        W               H        H
|--------------|-----------------|--------------|----------------------|
|--------------|-----------------|--------------|----------------------|
|--------------|--7------10------|--------------|--7-------10----------|
|-7------------|--7------10------|-7------------|--7-------10----------|
|-7------------|--5-------8------|-7------------|--5--------8----------|
|-5------------|-----------------|-5------------|----------------------|
|
| W               W                W               H.           Q
|--------------|-----------------|--------------|---------------5pb8r==|
|--------------|-----------------|--------------|----------------------|
|--------------|-----------------|--------------|----------------------|
|--------------|-----------------|--------------|----------------------|
|--------------|-----------------|--------------|----------------------|
|--------------|-----------------|--------------|----------------------|
|
| Q   H     Q     Q   H       Q    Q   H     Q     Q    H       Q
|----20----20--|-----------------|----20----20--|----------------------|
|----22----22--|-----18------22--|----22----22--|------18------22------|
|--------------|-----19------22--|--------------|------19------22------|
|--------------|-----------------|--------------|----------------------|
|--------------|-17--------------|--------------|-17-------------------|
|--------------|-----------------|--------------|----------------------|


  W               H       H        W               H        H
|--------------|-----------------|--------------|---------------------|
|--------------|-----------------|--------------|---------------------|
|--------------|--7------10------|--------------|--7-------10---------|
|-7------------|--7------10------|-7------------|--7-------10---------|
|-7------------|--5-------8------|-7------------|--5--------8---------|
|-5------------|-----------------|-5------------|---------------------|
|
| W               W                W               H.           Q
|--------------|-----------------|--------------|---------------5pb8r=|
|--------------|-----------------|--------------|---------------------|
|--------------|-----------------|--------------|---------------------|
|--------------|-----------------|--------------|---------------------|
|--------------|-----------------|--------------|---------------------|
|--------------|-----------------|--------------|---------------------|
|
| Q   H     Q     Q   H       Q    Q   H     Q     Q    H       Q
|----20----20--|-----------------|----20----20--|---------------------|
|----22----22--|-----18------22--|----22----22--|------18------22-----|
|--------------|-----19------22--|--------------|------19------22-----|
|--------------|-----------------|--------------|---------------------|
|--------------|-17--------------|--------------|-17------------------|
|--------------|-----------------|--------------|---------------------|


  W               H       H        W               H       H
|--------------|-----------------|--------------|-----------------|
|--------------|-----------------|--------------|-----------------|
|--------------|--7------10------|--------------|--7------10------|
|-7------------|--7------10------|-7------------|--7------10------|
|-7------------|--5-------8------|-7------------|--5-------8------|
|-5------------|-----------------|-5------------|-----------------|
|
| W               W                W               W
|--------------|-----------------|--------------|-----------------|
|--------------|-----------------|--------------|-----------------|
|--------------|-----------------|--------------|-----------------|
|--------------|-----------------|--------------|-----------------|
|--------------|-----------------|--------------|-----------------|
|--------------|-----------------|--------------|-----------------|
|
| Q   H     Q     Q   H       Q    Q   H     Q     Q   H       Q
|----20----20--|-----------------|----20----20--|-----------------|
|----22----22--|-----18------22--|----22----22--|-----18------22--|
|--------------|-----19------22--|--------------|-----19------22--|
|--------------|-----------------|--------------|-----------------|
|--------------|-17--------------|--------------|-17--------------|
|--------------|-----------------|--------------|-----------------|


  Gtr V
   W                 W                 W                 W
|--3--------------|--7--------------|--3--------------|--7--------------|
|-----------------|-----------------|-----------------|-----------------|
|-----------------|-----------------|-----------------|-----------------|
|--5--------------|--9--------------|--5--------------|--9--------------|
|-----------------|-----------------|-----------------|-----------------|
|-----------------|-----------------|-----------------|-----------------|
|
| Gtr IV
|  Q   Q   Q   Q     Q   Q   Q   Q     Q   Q   Q   Q     Q   Q   Q   Q
|-----15------15--|-----19------19--|-----15------15--|-----19------19--|
|-----17------17--|-----20------20--|-----17------17--|-----20------20--|
|-----------------|-----------------|-----------------|-----------------|
|-----------------|-----------------|-----------------|-----------------|
|-----------------|-----------------|-----------------|-----------------|
|-15------15------|-19------19------|-15------15------|-19------19------|


   W                 W                 W                 W
|--3--------------|--7--------------|--3--------------|--7--------------|
|-----------------|-----------------|-----------------|-----------------|
|-----------------|-----------------|-----------------|-----------------|
|--5--------------|--9--------------|--5--------------|--9--------------|
|-----------------|-----------------|-----------------|-----------------|
|-----------------|-----------------|-----------------|-----------------|
|
|  Q   Q   Q   Q     Q   Q   Q   Q     Q   Q   Q   Q     Q   Q   Q   Q
|-----15------15--|-----19------19--|-----15------15--|-----19------19--|
|-----17------17--|-----20------20--|-----17------17--|-----20------20--|
|-----------------|-----------------|-----------------|-----------------|
|-----------------|-----------------|-----------------|-----------------|
|-----------------|-----------------|-----------------|-----------------|
|-15------15------|-19------19------|-15------15------|-19------19------|


 Verse 2
  Gtrs I, II
   W                 W                 W                 W
|-----------------|-----------------|-----------------|-----------------|
|-----------------|-----------------|-----------------|-----------------|
|-----------------|-----------------|-----------------|-----------------|
|--5--------------|--9--------------|--5--------------|--9--------------|
|--5--------------|--9--------------|--5--------------|--9--------------|
|--3--------------|--7--------------|--3--------------|--7--------------|
|
| Gtr V
|  W                 W                 W                 W
|--3--------------|--7--------------|--3--------------|--7--------------|
|-----------------|-----------------|-----------------|-----------------|
|-----------------|-----------------|-----------------|-----------------|
|--5--------------|--9--------------|--5--------------|--9--------------|
|-----------------|-----------------|-----------------|-----------------|
|-----------------|-----------------|-----------------|-----------------|
|
| Gtr IV
|  Q   Q   Q   Q     Q   Q   Q   Q     Q   Q   Q   Q     Q   Q   Q   Q
|-----15------15--|-----19------19--|-----15------15--|-----19------19--|
|-----17------17--|-----20------20--|-----17------17--|-----20------20--|
|-----------------|-----------------|-----------------|-----------------|
|-----------------|-----------------|-----------------|-----------------|
|-----------------|-----------------|-----------------|-----------------|
|-15------15------|-19------19------|-15------15------|-19------19------|


   W                 W                 W                 W
|-----------------|-----------------|-----------------|-----------------|
|-----------------|-----------------|-----------------|-----------------|
|-----------------|-----------------|-----------------|-----------------|
|--5--------------|--9--------------|--5--------------|--9--------------|
|--5--------------|--9--------------|--5--------------|--9--------------|
|--3--------------|--7--------------|--3--------------|--7--------------|
|
|  W                 W                 W                 W
|--3--------------|--7--------------|--3--------------|--7--------------|
|-----------------|-----------------|-----------------|-----------------|
|-----------------|-----------------|-----------------|-----------------|
|--5--------------|--9--------------|--5--------------|--9--------------|
|-----------------|-----------------|-----------------|-----------------|
|-----------------|-----------------|-----------------|-----------------|
|
|  Q   Q   Q   Q     Q   Q   Q   Q     Q   Q   Q   Q     Q   Q   Q   Q
|-----15------15--|-----19------19--|-----15------15--|-----19------19--|
|-----17------17--|-----20------20--|-----17------17--|-----20------20--|
|-----------------|-----------------|-----------------|-----------------|
|-----------------|-----------------|-----------------|-----------------|
|-----------------|-----------------|-----------------|-----------------|
|-15------15------|-19------19------|-15------15------|-19------19------|


   W                 W                 W                 W
|-----------------|-----------------|-----------------|-----------------|
|-----------------|-----------------|-----------------|-----------------|
|-----------------|-----------------|-----------------|-----------------|
|--5--------------|--9--------------|--5--------------|--9--------------|
|--5--------------|--9--------------|--5--------------|--9--------------|
|--3--------------|--7--------------|--3--------------|--7--------------|
|
|  W                 W                 W                 W
|--3--------------|--7--------------|--3--------------|--7--------------|
|-----------------|-----------------|-----------------|-----------------|
|-----------------|-----------------|-----------------|-----------------|
|--5--------------|--9--------------|--5--------------|--9--------------|
|-----------------|-----------------|-----------------|-----------------|
|-----------------|-----------------|-----------------|-----------------|
|
|  Q   Q   Q   Q     Q   Q   Q   Q     Q   Q   Q   Q     Q   Q   Q   Q
|-----15------15--|-----19------19--|-----15------15--|-----19------19--|
|-----17------17--|-----20------20--|-----17------17--|-----20------20--|
|-----------------|-----------------|-----------------|-----------------|
|-----------------|-----------------|-----------------|-----------------|
|-----------------|-----------------|-----------------|-----------------|
|-15------15------|-19------19------|-15------15------|-19------19------|


   W                 W                 W                 W
|-----------------|-----------------|-----------------|-----------------|
|-----------------|-----------------|-----------------|-----------------|
|-----------------|-----------------|-----------------|-----------------|
|--5--------------|--9--------------|--5--------------|--9--------------|
|--5--------------|--9--------------|--5--------------|--9--------------|
|--3--------------|--7--------------|--3--------------|--7--------------|
|
|  W                 W                 W                 W
|--3--------------|--7--------------|--3--------------|--7--------------|
|-----------------|-----------------|-----------------|-----------------|
|-----------------|-----------------|-----------------|-----------------|
|--5--------------|--9--------------|--5--------------|--9--------------|
|-----------------|-----------------|-----------------|-----------------|
|-----------------|-----------------|-----------------|-----------------|
|
|  Q   Q   Q   Q     Q   Q   Q   Q     Q   Q   Q   Q     Q   Q   Q   Q
|-----15------15--|-----19------19--|-----15------15--|-----19------19--|
|-----17------17--|-----20------20--|-----17------17--|-----20------20--|
|-----------------|-----------------|-----------------|-----------------|
|-----------------|-----------------|-----------------|-----------------|
|-----------------|-----------------|-----------------|-----------------|
|-15------15------|-19------19------|-15------15------|-19------19------|


  W               H       H        W               H        H
|--------------|-----------------|--------------|---------------------|
|--------------|-----------------|--------------|---------------------|
|--------------|--7------10------|--------------|--7-------10---------|
|-7------------|--7------10------|-7------------|--7-------10---------|
|-7------------|--5-------8------|-7------------|--5--------8---------|
|-5------------|-----------------|-5------------|---------------------|
|
| Gtr III
| W               W                W               H.           Q
|--------------|-----------------|--------------|---------------5pb8r=|
|--------------|-----------------|--------------|---------------------|
|--------------|-----------------|--------------|---------------------|
|--------------|-----------------|--------------|---------------------|
|--------------|-----------------|--------------|---------------------|
|--------------|-----------------|--------------|---------------------|
|
| Q   H     Q     Q   H       Q    Q   H     Q     Q    H       Q
|----20----20--|-----------------|----20----20--|---------------------|
|----22----22--|-----18------22--|----22----22--|------18------22-----|
|--------------|-----19------22--|--------------|------19------22-----|
|--------------|-----------------|--------------|---------------------|
|--------------|-17--------------|--------------|-17------------------|
|--------------|-----------------|--------------|---------------------|


  W               H       H        W               H        H
|--------------|-----------------|--------------|----------------------|
|--------------|-----------------|--------------|----------------------|
|--------------|--7------10------|--------------|--7-------10----------|
|-7------------|--7------10------|-7------------|--7-------10----------|
|-7------------|--5-------8------|-7------------|--5--------8----------|
|-5------------|-----------------|-5------------|----------------------|
|
| W               W                W               H.           Q
|--------------|-----------------|--------------|---------------5pb8r==|
|--------------|-----------------|--------------|----------------------|
|--------------|-----------------|--------------|----------------------|
|--------------|-----------------|--------------|----------------------|
|--------------|-----------------|--------------|----------------------|
|--------------|-----------------|--------------|----------------------|
|
| Q   H     Q     Q   H       Q    Q   H     Q     Q    H       Q
|----20----20--|-----------------|----20----20--|----------------------|
|----22----22--|-----18------22--|----22----22--|------18------22------|
|--------------|-----19------22--|--------------|------19------22------|
|--------------|-----------------|--------------|----------------------|
|--------------|-17--------------|--------------|-17-------------------|
|--------------|-----------------|--------------|----------------------|


  W               H       H        W               H        H
|--------------|-----------------|--------------|---------------------|
|--------------|-----------------|--------------|---------------------|
|--------------|--7------10------|--------------|--7-------10---------|
|-7------------|--7------10------|-7------------|--7-------10---------|
|-7------------|--5-------8------|-7------------|--5--------8---------|
|-5------------|-----------------|-5------------|---------------------|
|
| W               W                W               H.           Q
|--------------|-----------------|--------------|---------------5pb8r=|
|--------------|-----------------|--------------|---------------------|
|--------------|-----------------|--------------|---------------------|
|--------------|-----------------|--------------|---------------------|
|--------------|-----------------|--------------|---------------------|
|--------------|-----------------|--------------|---------------------|
|
| Q   H     Q     Q   H       Q    Q   H     Q     Q    H       Q
|----20----20--|-----------------|----20----20--|---------------------|
|----22----22--|-----18------22--|----22----22--|------18------22-----|
|--------------|-----19------22--|--------------|------19------22-----|
|--------------|-----------------|--------------|---------------------|
|--------------|-17--------------|--------------|-17------------------|
|--------------|-----------------|--------------|---------------------|


  W               H       H        W               H        H
|--------------|-----------------|--------------|----------------------||
|--------------|-----------------|--------------|----------------------||
|--------------|--7------10------|--------------|--7-------10----------||
|-7------------|--7------10------|-7------------|--7-------10----------||
|-7------------|--5-------8------|-7------------|--5--------8----------||
|-5------------|-----------------|-5------------|----------------------||
|
| W               W                W               H.           Q
|--------------|-----------------|--------------|---------------5pb8r==||
|--------------|-----------------|--------------|----------------------||
|--------------|-----------------|--------------|----------------------||
|--------------|-----------------|--------------|----------------------||
|--------------|-----------------|--------------|----------------------||
|--------------|-----------------|--------------|----------------------||
|
| Q   H     Q     Q   H       Q    Q   H     Q     Q    H       Q
|----20----20--|-----------------|----20----20--|----------------------||
|----22----22--|-----18------22--|----22----22--|------18------22------||
|--------------|-----19------22--|--------------|------19------22------||
|--------------|-----------------|--------------|----------------------||
|--------------|-17--------------|--------------|-17-------------------||
|--------------|-----------------|--------------|----------------------||


 Interlude
  Q=165
  E5                                     C5                          E5
  Gtr III
   W                                      H.                          Q
   |                                      |                           |
   /                                      /                           /

   Q        H.
|--------------------------------------|--------------------------------------|
|--------------------------------------|--------------------------------------|
|--------------------------------------|--------------------------------------|
|--9-----------------------------------|--------------------------------------|
|--7-----------------------------------|--------------------------------------|
|--------------------------------------|--------------------------------------|
|
| Gtr VI
|  |--3--|  |--3---|  |--3--|  |--3--|    |--3---|  |--3--|  |--3--|  |--3--|
|  E  E  E  E   E  E  E  E  E  E  E  E    E   E  E  E  E  E  E  E  E  E  E  E
|-------12--------12-------12-------12-|--------------------------------------|
|----12--------12-------12-------12----|--------13-------13-------13-------13-|
|--------------------------------------|-----12-------12-------12-------12----|
|-14-------14--------14-------14-------|--------------------------------------|
|--------------------------------------|-15--------15-------15-------15-------|
|--------------------------------------|--------------------------------------|


  D5
   W                                    +W
   |                                     |
   /                                     /

|-------------------------------------|----------------------------------------|
|-------------------------------------|----------------------------------------|
|-------------------------------------|----------------------------------------|
|-------------------------------------|----------------------------------------|
|-------------------------------------|----------------------------------------|
|-------------------------------------|----------------------------------------|
|
|  |--3--|  |--3--|  |--3--|  |--3--|    |--3--|  |--3--|  |--3--|  |--3--|
|  E  E  E  E  E  E  E  E  E  E  E  E    E  E  E  E  E  E  E  E  E  E  E  E
|-------------------------------------|----------------------------------------|
|-------15-------15-------15-------15-|-------15-------15-------15-------15----|
|----14-------14-------14-------14----|----14-------14-------14-------14-------|
|-12-------12-------12-------12-------|-12-------12-------12-------12----------|
|-------------------------------------|----------------------------------------|
|-------------------------------------|----------------------------------------|


  E5                                    C5                          E5
  Gtrs I, II, III
   W                                     H.                          Q
   |                                     |                           |
   /                                     /                           /

  Gtr VI
   |--3--|  |--3--|  |--3--|  |--3--|    |--3---|  |--3--|  |--3--|  |--3--|
   E  E  E  E  E  E  E  E  E  E  E  E    E   E  E  E  E  E  E  E  E  E  E  E
|-------12-------12-------12-------12-|--------------------------------------|
|----12-------12-------12-------12----|--------13-------13-------13-------13-|
|-------------------------------------|-----12-------12-------12-------12----|
|-14-------14-------14-------14-------|--------------------------------------|
|-------------------------------------|-15--------15-------15-------15-------|
|-------------------------------------|--------------------------------------|


  D5
   W                                    +W
   |                                     |
   /                                     /

   |--3--|  |--3--|  |--3--|  |--3--|    |--3--|  |--3--|  |--3--|  |--3--|
   E  E  E  E  E  E  E  E  E  E  E  E    E  E  E  E  E  E  E  E  E  E  E  E
|-------------------------------------|----------------------------------------|
|-------15-------15-------15-------15-|-------15-------15-------15-------15----|
|----14-------14-------14-------14----|----14-------14-------14-------14-------|
|-12-------12-------12-------12-------|-12-------12-------12-------12----------|
|-------------------------------------|----------------------------------------|
|-------------------------------------|----------------------------------------|


  E5                                    C5                          E5
   W                                     H.                          Q
   |                                     |                           |
   /                                     /                           /

  Gtrs I, II
   |--3--|  |--3--|  |--3--|  |--3--|    |--3---|  |--3--|  |--3--|  |--3--|
   E  E  E  E  E  E  E  E  E  E  E  E    E   E  E  E  E  E  E  E  E  E  E  E
|-------------------------------------|--------------------------------------|
|-------------------------------------|--------------------------------------|
|-------------------------------------|--------------------------------------|
|--9--9--9--9--9--9--9--9--9--9--9--9-|--5---5--5--5--5--5--5--5--5--9--9--9-|
|--7--7--7--7--7--7--7--7--7--7--7--7-|--3---3--3--3--3--3--3--3--3--7--7--7-|
|-------------------------------------|--------------------------------------|
|
| Gtr VI
|  |--3--|  |--3--|  |--3--|  |--3--|    |--3---|  |--3--|  |--3--|  |--3--|
|  E  E  E  E  E  E  E  E  E  E  E  E    E   E  E  E  E  E  E  E  E  E  E  E
|-------12-------12-------12-------12-|--------------------------------------|
|----12-------12-------12-------12----|--------13-------13-------13-------13-|
|-------------------------------------|-----12-------12-------12-------12----|
|-14-------14-------14-------14-------|--------------------------------------|
|-------------------------------------|-15--------15-------15-------15-------|
|-------------------------------------|--------------------------------------|


  D5
   W                                    +W
   |                                     |
   /                                     /

   |--3--|  |--3--|  |--3--|  |--3--|    |--3--|  |--3--|  |--3--|  |--3--|
   E  E  E  E  E  E  E  E  E  E  E  E    E  E  E  E  E  E  E  E  E  E  E  E
|-------------------------------------|----------------------------------------|
|-------------------------------------|----------------------------------------|
|-------------------------------------|----------------------------------------|
|--7--7--7--7--7--7--7--7--7--7--7--7-|--7--7--7--7--7--7--7--7--7--7--7--7----|
|--5--5--5--5--5--5--5--5--5--5--5--5-|--5--5--5--5--5--5--5--5--5--5--5--5----|
|-------------------------------------|----------------------------------------|
|
|  |--3--|  |--3--|  |--3--|  |--3--|    |--3--|  |--3--|  |--3--|  |--3--|
|  E  E  E  E  E  E  E  E  E  E  E  E    E  E  E  E  E  E  E  E  E  E  E  E
|-------------------------------------|----------------------------------------|
|-------15-------15-------15-------15-|-------15-------15-------15-------15----|
|----14-------14-------14-------14----|----14-------14-------14-------14-------|
|-12-------12-------12-------12-------|-12-------12-------12-------12----------|
|-------------------------------------|----------------------------------------|
|-------------------------------------|----------------------------------------|


  E5                                    C5                          E5
   W                                     H.                          Q
   |                                     |                           |
   /                                     /                           /

   |--3--|  |--3--|  |--3--|  |--3--|    |--3---|  |--3--|  |--3--|  |--3--|
   E  E  E  E  E  E  E  E  E  E  E  E    E   E  E  E  E  E  E  E  E  E  E  E
|-------------------------------------|--------------------------------------|
|-------------------------------------|--------------------------------------|
|-------------------------------------|--------------------------------------|
|--9--9--9--9--9--9--9--9--9--9--9--9-|--5---5--5--5--5--5--5--5--5--9--9--9-|
|--7--7--7--7--7--7--7--7--7--7--7--7-|--3---3--3--3--3--3--3--3--3--7--7--7-|
|-------------------------------------|--------------------------------------|
|
|  |--3--|  |--3--|  |--3--|  |--3--|    |--3---|  |--3--|  |--3--|  |--3--|
|  E  E  E  E  E  E  E  E  E  E  E  E    E   E  E  E  E  E  E  E  E  E  E  E
|-------12-------12-------12-------12-|--------------------------------------|
|----12-------12-------12-------12----|--------13-------13-------13-------13-|
|-------------------------------------|-----12-------12-------12-------12----|
|-14-------14-------14-------14-------|--------------------------------------|
|-------------------------------------|-15--------15-------15-------15-------|
|-------------------------------------|--------------------------------------|


  D5
   W                                    +W
   |                                     |
   /                                     /

   |--3--|  |--3--|  |--3--|  |--3--|    |--3--|  |--3--|  |--3--|  |--3--|
   E  E  E  E  E  E  E  E  E  E  E  E    E  E  E  E  E  E  E  E  E  E  E  E
|-------------------------------------|----------------------------------------|
|-------------------------------------|----------------------------------------|
|-------------------------------------|----------------------------------------|
|--7--7--7--7--7--7--7--7--7--7--7--7-|--7--7--7--7--7--7--7--7--7--7--7--7----|
|--5--5--5--5--5--5--5--5--5--5--5--5-|--5--5--5--5--5--5--5--5--5--5--5--5----|
|-------------------------------------|----------------------------------------|
|
|  |--3--|  |--3--|  |--3--|  |--3--|    |--3--|  |--3--|  |--3--|  |--3--|
|  E  E  E  E  E  E  E  E  E  E  E  E    E  E  E  E  E  E  E  E  E  E  E  E
|-------------------------------------|----------------------------------------|
|-------15-------15-------15-------15-|-------15-------15-------15-------15----|
|----14-------14-------14-------14----|----14-------14-------14-------14-------|
|-12-------12-------12-------12-------|-12-------12-------12-------12----------|
|-------------------------------------|----------------------------------------|
|-------------------------------------|----------------------------------------|


  E5                                    C5                          E5
   W                                     H.                          Q
   |                                     |                           |
   /                                     /                           /

   |--3--|  |--3--|  |--3--|  |--3--|    |--3---|  |--3--|  |--3--|  |--3--|
   E  E  E  E  E  E  E  E  E  E  E  E    E   E  E  E  E  E  E  E  E  E  E  E
|-------------------------------------|--------------------------------------|
|-------------------------------------|--------------------------------------|
|-------------------------------------|--------------------------------------|
|--9--9--9--9--9--9--9--9--9--9--9--9-|--5---5--5--5--5--5--5--5--5--9--9--9-|
|--7--7--7--7--7--7--7--7--7--7--7--7-|--3---3--3--3--3--3--3--3--3--7--7--7-|
|-------------------------------------|--------------------------------------|
|
|  |--3--|  |--3--|  |--3--|  |--3--|    |--3---|  |--3--|  |--3--|  |--3--|
|  E  E  E  E  E  E  E  E  E  E  E  E    E   E  E  E  E  E  E  E  E  E  E  E
|-------12-------12-------12-------12-|--------------------------------------|
|----12-------12-------12-------12----|--------13-------13-------13-------13-|
|-------------------------------------|-----12-------12-------12-------12----|
|-14-------14-------14-------14-------|--------------------------------------|
|-------------------------------------|-15--------15-------15-------15-------|
|-------------------------------------|--------------------------------------|


  D5
   W                                    +W
   |                                     |
   /                                     /

   |--3--|  |--3--|  |--3--|  |--3--|    |--3--|  |--3--|  |--3--|  |--3--|
   E  E  E  E  E  E  E  E  E  E  E  E    E  E  E  E  E  E  E  E  E  E  E  E
|-------------------------------------|----------------------------------------|
|-------------------------------------|----------------------------------------|
|-------------------------------------|----------------------------------------|
|--7--7--7--7--7--7--7--7--7--7--7--7-|--7--7--7--7--7--7--7--7--7--7--7--7----|
|--5--5--5--5--5--5--5--5--5--5--5--5-|--5--5--5--5--5--5--5--5--5--5--5--5----|
|-------------------------------------|----------------------------------------|
|
|  |--3--|  |--3--|  |--3--|  |--3--|    |--3--|  |--3--|  |--3--|  |--3--|
|  E  E  E  E  E  E  E  E  E  E  E  E    E  E  E  E  E  E  E  E  E  E  E  E
|-------------------------------------|----------------------------------------|
|-------15-------15-------15-------15-|-------15-------15-------15-------15----|
|----14-------14-------14-------14----|----14-------14-------14-------14-------|
|-12-------12-------12-------12-------|-12-------12-------12-------12----------|
|-------------------------------------|----------------------------------------|
|-------------------------------------|----------------------------------------|


  E5                                    C5                          E5
   W                                     H.                          Q
   |                                     |                           |
   /                                     /                           /

   |--3--|  |--3--|  |--3--|  |--3--|    |--3---|  |--3--|  |--3--|  |--3--|
   E  E  E  E  E  E  E  E  E  E  E  E    E   E  E  E  E  E  E  E  E  E  E  E
|-------------------------------------|--------------------------------------|
|-------------------------------------|--------------------------------------|
|-------------------------------------|--------------------------------------|
|--9--9--9--9--9--9--9--9--9--9--9--9-|--5---5--5--5--5--5--5--5--5--9--9--9-|
|--7--7--7--7--7--7--7--7--7--7--7--7-|--3---3--3--3--3--3--3--3--3--7--7--7-|
|-------------------------------------|--------------------------------------|
|
|  |--3--|  |--3--|  |--3--|  |--3--|    |--3---|  |--3--|  |--3--|  |--3--|
|  E  E  E  E  E  E  E  E  E  E  E  E    E   E  E  E  E  E  E  E  E  E  E  E
|-------12-------12-------12-------12-|--------------------------------------|
|----12-------12-------12-------12----|--------13-------13-------13-------13-|
|-------------------------------------|-----12-------12-------12-------12----|
|-14-------14-------14-------14-------|--------------------------------------|
|-------------------------------------|-15--------15-------15-------15-------|
|-------------------------------------|--------------------------------------|


  H.=H
  D5
   W                                    +W
   |                                     |
   /                                     /

   |--3--|  |--3--|  |--3--|  |--3--|    |--3--|  |--3--|  |--3--|  |--3--|
   E  E  E  E  E  E  E  E  E  E  E  E    E  E  E  E  E  E  E  E  E  E  E  E
|-------------------------------------|----------------------------------------||
|-------------------------------------|----------------------------------------||
|-------------------------------------|----------------------------------------||
|--7--7--7--7--7--7--7--7--7--7--7--7-|--7--7--7--7--7--7--7--7--7--7--7--7----||
|--5--5--5--5--5--5--5--5--5--5--5--5-|--5--5--5--5--5--5--5--5--5--5--5--5----||
|-------------------------------------|----------------------------------------||
|
|  |--3--|  |--3--|  |--3--|  |--3--|    |--3--|  |--3--|  |--3--|  |--3--|
|  E  E  E  E  E  E  E  E  E  E  E  E    E  E  E  E  E  E  E  E  E  E  E  E
|-------------------------------------|----------------------------------------||
|-------15-------15-------15-------15-|-------15-------15-------15-------15----||
|----14-------14-------14-------14----|----14-------14-------14-------14-------||
|-12-------12-------12-------12-------|-12-------12-------12-------12----------||
|-------------------------------------|----------------------------------------||
|-------------------------------------|----------------------------------------||


 Verse 3
  Q=135
  A5          C5(type 2)     D5(type 2)        E5(tF5(tG5e 2)A5
   W           W              W           +Q    Q   Q   Q
   |           |              |            |    |   |   |
   /           /              /            /    /   /   /

   W           H.       Q     W           +Q    Q   Q   Q
|-----------|--------------|-----------|-------------------|
|-----------|--------------|-----------|-------------------|
|-----------|--------------|-----------|-------------------|
|-----------|--5--------9--|--7--------|--(7)---9--10--12--|
|--7--------|--3--------7--|--5--------|--(5)---7---8--10--|
|--5--------|--------------|-----------|-------------------|
|
| Gtr V
|  W           H.       Q     W           +Q    Q   Q   Q
|-20--------|-15-------19--|-17--------|-(17)--14--15--17--|
|-22--------|-13-------17--|-15--------|-(15)--12--13--15--|
|-----------|--------------|-----------|-------------------|
|-----------|--------------|-----------|-------------------|
|-----------|--------------|-----------|-------------------|
|-----------|--------------|-----------|-------------------|


              C5(type 2)     D5(type 2)        E5(tF5(tG5e 2)
   W           W              W           +Q    Q   Q   Q
   |           |              |            |    |   |   |
   /           /              /            /    /   /   /

   W           H.       Q     W           +Q    Q   Q   Q
|-----------|--------------|-----------|-------------------|
|-----------|--------------|-----------|-------------------|
|-----------|--------------|-----------|-------------------|
|-----------|--5--------9--|--7--------|--(7)---9--10--12--|
|--7--------|--3--------7--|--5--------|--(5)---7---8--10--|
|--5--------|--------------|-----------|-------------------|
|
|  W           H.       Q     W           +Q    Q   Q   Q
|-24--------|-20-------24--|-22--------|-(22)--19--20--22--|
|-22--------|--------------|-----------|-------17--18--20--|
|-----------|--------------|-----------|-------------------|
|-----------|--------------|-----------|-------------------|
|-----------|--------------|-----------|-------------------|
|-----------|--------------|-----------|-------------------|


  A5          C5(type 2)     D5(type 2)        E5(tF5(tG5e 2)A5
   W           W              W           +Q    Q   Q   Q
   |           |              |            |    |   |   |
   /           /              /            /    /   /   /

   W           H.       Q     W           +Q    Q   Q   Q
|-----------|--------------|-----------|-------------------|
|-----------|--------------|-----------|-------------------|
|-----------|--------------|-----------|-------------------|
|-----------|--5--------9--|--7--------|--(7)---9--10--12--|
|--7--------|--3--------7--|--5--------|--(5)---7---8--10--|
|--5--------|--------------|-----------|-------------------|
|
|  W           H.       Q     W           +Q    Q   Q   Q
|-24--------|-15-------19--|-17--------|-(17)--14--15--17--|
|-22--------|-13-------17--|-15--------|-(15)--12--13--15--|
|-----------|--------------|-----------|-------------------|
|-----------|--------------|-----------|-------------------|
|-----------|--------------|-----------|-------------------|
|-----------|--------------|-----------|-------------------|


              C5(type 2)     D5(type 2)        E5(tF5(tG5e 2)
   W           W              W           +Q    Q   Q   Q
   |           |              |            |    |   |   |
   /           /              /            /    /   /   /

   W           H.       Q     W           +Q    Q   Q   Q
|-----------|--------------|-----------|-------------------|
|-----------|--------------|-----------|-------------------|
|-----------|--------------|-----------|-------------------|
|-----------|--5--------9--|--7--------|--(7)---9--10--12--|
|--7--------|--3--------7--|--5--------|--(5)---7---8--10--|
|--5--------|--------------|-----------|-------------------|
|
|  W           H.       Q     W           +Q    Q   Q   Q
|-24--------|-20-------24--|-22--------|-(22)--19--20--22--|
|-22--------|--------------|-----------|-------17--18--20--|
|-----------|--------------|-----------|-------------------|
|-----------|--------------|-----------|-------------------|
|-----------|--------------|-----------|-------------------|
|-----------|--------------|-----------|-------------------|


  A5                 C5(type 2)
   W                  W
   |                  |
   /                  /

   E E E E E E E E    E  E E E E E  E E
|------------------|--------------------|
|------------------|--------------------|
|------------------|--------------------|
|------------------|--5------5------5---|
|--7-----7-----7---|--3--3-3-3-3-3--3-3-|
|--5-5-5-5-5-5-5-5-|--------------------|
|
| Gtr II
|  W                  Q    Q   Q    Q
|------------------|--------------------|
|------------------|--------------------|
|------------------|--------------------|
|------------------|--------------------|
|------------------|--8----7---5----7---|
|--5---------------|--------------------|
|
| Gtr IV
|  W                  H.            Q
|-24---------------|-15------------19---|
|-22---------------|-13------------17---|
|------------------|--------------------|
|------------------|--------------------|
|------------------|--------------------|
|------------------|--------------------|


  D5(type 2)                E5(tyF5(tyG5 2)
   W                  +Q     Q    Q    Q
   |                   |     |    |    |
   /                   /     /    /    /

   E E E E E E E E     E  E  E E  E E  E  E
|------------------|------------------------|
|------------------|------------------------|
|------------------|------------------------|
|--7-----7-----7---|---7-----9---10---12----|
|--5-5-5-5-5-5-5-5-|---5--5--7-7--8-8-10-10-|
|------------------|------------------------|
|
|  W                  +W
|------------------|------------------------|
|------------------|------------------------|
|------------------|------------------------|
|------------------|------------------------|
|--8---------------|--(8)-------------------|
|------------------|------------------------|
|
|  W                  +Q     Q    Q    Q
|-17---------------|-(17)---14---15---17----|
|-15---------------|-(15)---12---13---15----|
|------------------|------------------------|
|------------------|------------------------|
|------------------|------------------------|
|------------------|------------------------|


  A5                 C5(type 2)
   W                  W
   |                  |
   /                  /

   E E E E E E E E    E  E E E E E  E E
|------------------|--------------------|
|------------------|--------------------|
|------------------|--------------------|
|------------------|--5------5------5---|
|--7-----7-----7---|--3--3-3-3-3-3--3-3-|
|--5-5-5-5-5-5-5-5-|--------------------|
|
|  W                  Q    Q   Q    Q
|------------------|--------------------|
|------------------|--------------------|
|------------------|--------------------|
|------------------|--------------------|
|------------------|--8----7---5----7---|
|--5---------------|--------------------|
|
|  W                  H.            Q
|-24---------------|-20------------24---|
|-22---------------|--------------------|
|------------------|--------------------|
|------------------|--------------------|
|------------------|--------------------|
|------------------|--------------------|


  D5(type 2)                E5(tyF5(tyG5 2)
   W                  +Q     Q    Q    Q
   |                   |     |    |    |
   /                   /     /    /    /

   E E E E E E E E     E  E  E E  E E  E  E
|------------------|------------------------|
|------------------|------------------------|
|------------------|------------------------|
|--7-----7-----7---|---7-----9---10---12----|
|--5-5-5-5-5-5-5-5-|---5--5--7-7--8-8-10-10-|
|------------------|------------------------|
|
|  W                  +W
|------------------|------------------------|
|------------------|------------------------|
|------------------|------------------------|
|------------------|------------------------|
|--8---------------|--(8)-------------------|
|------------------|------------------------|
|
|  W                  +Q     Q    Q    Q
|-22---------------|-(22)---19---20---22----|
|------------------|--------17---18---20----|
|------------------|------------------------|
|------------------|------------------------|
|------------------|------------------------|
|------------------|------------------------|


  A5                 C5
   W                  W
   |                  |
   /                  /

   E E E E E E E E    E  E E E E E  E E
|------------------|--------------------|
|------------------|--------------------|
|------------------|--------------------|
|------------------|--5------5------5---|
|--7-----7-----7---|--3--3-3-3-3-3--3-3-|
|--5-5-5-5-5-5-5-5-|--------------------|
|
|  W                  Q    Q   Q    Q
|------------------|--------------------|
|------------------|--------------------|
|------------------|--------------------|
|------------------|--------------------|
|------------------|--8----7---5----7---|
|--5---------------|--------------------|
|
|  W                  H.            Q
|-24---------------|-15------------19---|
|-22---------------|-13------------17---|
|------------------|--------------------|
|------------------|--------------------|
|------------------|--------------------|
|------------------|--------------------|


  D5(type 2)                E5(tyF5(tyG5 2)
   W                  +Q     Q    Q    Q
   |                   |     |    |    |
   /                   /     /    /    /

   E E E E E E E E     E  E  E E  E E  E  E
|------------------|------------------------|
|------------------|------------------------|
|------------------|------------------------|
|--7-----7-----7---|---7-----9---10---12----|
|--5-5-5-5-5-5-5-5-|---5--5--7-7--8-8-10-10-|
|------------------|------------------------|
|
|  W                  +W
|------------------|------------------------|
|------------------|------------------------|
|------------------|------------------------|
|------------------|------------------------|
|--8---------------|--(8)-------------------|
|------------------|------------------------|
|
|  W                  +Q     Q    Q    Q
|-17---------------|-(17)---14---15---17----|
|-15---------------|-(15)---12---13---15----|
|------------------|------------------------|
|------------------|------------------------|
|------------------|------------------------|
|------------------|------------------------|


  A5                 C5
   W                  W
   |                  |
   /                  /

   E E E E E E E E    E  E E E E E  E E
|------------------|--------------------|
|------------------|--------------------|
|------------------|--------------------|
|------------------|--5------5------5---|
|--7-----7-----7---|--3--3-3-3-3-3--3-3-|
|--5-5-5-5-5-5-5-5-|--------------------|
|
|  W                  Q    Q   Q    Q
|------------------|--------------------|
|------------------|--------------------|
|------------------|--------------------|
|------------------|--------------------|
|------------------|--8----7---5----7---|
|--5---------------|--------------------|
|
|  W                  H.            Q
|-24---------------|-20------------24---|
|-22---------------|--------------------|
|------------------|--------------------|
|------------------|--------------------|
|------------------|--------------------|
|------------------|--------------------|


  D5(type 2)                E5(tyF5(tyG5 2)
   W                  +Q     Q    Q    Q
   |                   |     |    |    |
   /                   /     /    /    /

   E E E E E E E E     E  E  E E  E E  E  E
|------------------|------------------------|
|------------------|------------------------|
|------------------|------------------------|
|--7-----7-----7---|---7-----9---10---12----|
|--5-5-5-5-5-5-5-5-|---5--5--7-7--8-8-10-10-|
|------------------|------------------------|
|
|  W                  +W
|------------------|------------------------|
|------------------|------------------------|
|------------------|------------------------|
|------------------|------------------------|
|--8---------------|--(8)-------------------|
|------------------|------------------------|
|
|  W                  +Q     Q    Q    Q
|-22---------------|-(22)---19---20---22----|
|------------------|--------17---18---20----|
|------------------|------------------------|
|------------------|------------------------|
|------------------|------------------------|
|------------------|------------------------|


  Gtr V
   W                 W                 W                 W
|--3--------------|--7--------------|--3--------------|--7--------------|
|-----------------|-----------------|-----------------|-----------------|
|-----------------|-----------------|-----------------|-----------------|
|--5--------------|--9--------------|--5--------------|--9--------------|
|-----------------|-----------------|-----------------|-----------------|
|-----------------|-----------------|-----------------|-----------------|
|
| Gtr IV
|  Q   Q   Q   Q     Q   Q   Q   Q     Q   Q   Q   Q     Q   Q   Q   Q
|-----15------15--|-----19------19--|-----15------15--|-----19------19--|
|-----17------17--|-----20------20--|-----17------17--|-----20------20--|
|-----------------|-----------------|-----------------|-----------------|
|-----------------|-----------------|-----------------|-----------------|
|-----------------|-----------------|-----------------|-----------------|
|-15------15------|-19------19------|-15------15------|-19------19------|


   W                 W                 W                 W
|--3--------------|--7--------------|--3--------------|--7--------------||
|-----------------|-----------------|-----------------|-----------------||
|-----------------|-----------------|-----------------|-----------------||
|--5--------------|--9--------------|--5--------------|--9--------------||
|-----------------|-----------------|-----------------|-----------------||
|-----------------|-----------------|-----------------|-----------------||
|
|  Q   Q   Q   Q     Q   Q   Q   Q     Q   Q   Q   Q     Q   Q   Q   Q
|-----15------15--|-----19------19--|-----15------15--|-----19------19--||
|-----17------17--|-----20------20--|-----17------17--|-----20------20--||
|-----------------|-----------------|-----------------|-----------------||
|-----------------|-----------------|-----------------|-----------------||
|-----------------|-----------------|-----------------|-----------------||
|-15------15------|-19------19------|-15------15------|-19------19------||


 Verse 4
  Gtrs I, II
  W               H       H        W               H       H
|--------------|-----------------|--------------|-----------------|
|--------------|-----------------|--------------|-----------------|
|--------------|--7------10------|--------------|--7------10------|
|-7------------|--7------10------|-7------------|--7------10------|
|-7------------|--5-------8------|-7------------|--5-------8------|
|-5------------|-----------------|-5------------|-----------------|
|
| Gtr IV
| Q   H     Q     Q   H       Q    Q   H     Q     Q   H       Q
|----20----20--|-----------------|----20----20--|-----------------|
|----22----22--|-----18------22--|----22----22--|-----18------22--|
|--------------|-----19------22--|--------------|-----19------22--|
|--------------|-----------------|--------------|-----------------|
|--------------|-17--------------|--------------|-17--------------|
|--------------|-----------------|--------------|-----------------|


  W               H       H        W               H       H
|--------------|-----------------|--------------|-----------------|
|--------------|-----------------|--------------|-----------------|
|--------------|--7------10------|--------------|--7------10------|
|-7------------|--7------10------|-7------------|--7------10------|
|-7------------|--5-------8------|-7------------|--5-------8------|
|-5------------|-----------------|-5------------|-----------------|
|
| Q   H     Q     Q   H       Q    Q   H     Q     Q   H       Q
|----20----20--|-----------------|----20----20--|-----------------|
|----22----22--|-----18------22--|----22----22--|-----18------22--|
|--------------|-----19------22--|--------------|-----19------22--|
|--------------|-----------------|--------------|-----------------|
|--------------|-17--------------|--------------|-17--------------|
|--------------|-----------------|--------------|-----------------|


  W               H       H        W               H       H
|--------------|-----------------|--------------|-----------------|
|--------------|-----------------|--------------|-----------------|
|--------------|--7------10------|--------------|--7------10------|
|-7------------|--7------10------|-7------------|--7------10------|
|-7------------|--5-------8------|-7------------|--5-------8------|
|-5------------|-----------------|-5------------|-----------------|
|
| Q   H     Q     Q   H       Q    Q   H     Q     Q   H       Q
|----20----20--|-----------------|----20----20--|-----------------|
|----22----22--|-----18------22--|----22----22--|-----18------22--|
|--------------|-----19------22--|--------------|-----19------22--|
|--------------|-----------------|--------------|-----------------|
|--------------|-17--------------|--------------|-17--------------|
|--------------|-----------------|--------------|-----------------|


  W               H       H        W               H       H
|--------------|-----------------|--------------|-----------------|
|--------------|-----------------|--------------|-----------------|
|--------------|--7------10------|--------------|--7------10------|
|-7------------|--7------10------|-7------------|--7------10------|
|-7------------|--5-------8------|-7------------|--5-------8------|
|-5------------|-----------------|-5------------|-----------------|
|
| Q   H     Q     Q   H       Q    Q   H     Q     Q   H       Q
|----20----20--|-----------------|----20----20--|-----------------|
|----22----22--|-----18------22--|----22----22--|-----18------22--|
|--------------|-----19------22--|--------------|-----19------22--|
|--------------|-----------------|--------------|-----------------|
|--------------|-17--------------|--------------|-17--------------|
|--------------|-----------------|--------------|-----------------|


  A5                Dm     F5           A5                Dm     F5
  Gtr III
  W                 Q.     H       +E   W                 Q.     H         +E
  |                 |      |        |   |                 |      |          |
  /                 /      /        /   /                 /      /          /

  E E E E E E E E   E  E E E E E E  E   E E E E E E E E   E  E E E  E E  E  E
|-----------------|-------------------|-----------------|---------------------|
|-----------------|-------------------|-----------------|---------------------|
|-----------------|-------------------|-----------------|---------------------|
|-----------------|-5------5-----5----|-7-----7-----7---|-7----9---10---12----|
|-7-----7-----7---|-3--3-3-3-3-3-3--3-|-5-5-5-5-5-5-5-5-|-5--5-7-7--8-8-10-10-|
|-5-5-5-5-5-5-5-5-|-------------------|-----------------|---------------------|


  A5                Dm     F5           A5                Dm     F5
  W                 Q.     H       +E   W                 Q.     H         +E
  |                 |      |        |   |                 |      |          |
  /                 /      /        /   /                 /      /          /

  E E E E E E E E   E  E E E E E E  E   E E E E E E E E   E  E E E  E E  E  E
|-----------------|-------------------|-----------------|---------------------||
|-----------------|-------------------|-----------------|---------------------||
|-----------------|-------------------|-----------------|---------------------||
|-----------------|-5------5-----5----|-7-----7-----7---|-7----9---10---12----||
|-7-----7-----7---|-3--3-3-3-3-3-3--3-|-5-5-5-5-5-5-5-5-|-5--5-7-7--8-8-10-10-||
|-5-5-5-5-5-5-5-5-|-------------------|-----------------|---------------------||


 Outro
  A5                          Dm         F5
  W                           Q.          H                +E
  |                           |           |                 |
  /                           /           /                 /

  E S S S S E S S S S E S S   E  S S S S  E  S  S  S  S  E  S  S
|---------------------------|------------------------------------|
|---------------------------|------------------------------------|
|---------------------------|------------------------------------|
|---------------------------|-7--7-7-7-7-10-10-10-10-10-10-10-10-|
|-7-7-7-7-7-7-7-7-7-7-7-7-7-|-5--5-5-5-5--8--8--8--8--8--8--8--8-|
|-5-5-5-5-5-5-5-5-5-5-5-5-5-|------------------------------------|


  A5                          Dm         F5
  W                           Q.          H                +E
  |                           |           |                 |
  /                           /           /                 /

  E S S S S E S S S S E S S   E  S S S S  E  S  S  S  S  E  S  S
|---------------------------|---------------------------------------|
|---------------------------|---------------------------------------|
|---------------------------|---------------------------------------|
|---------------------------|-7--7-7-7-7-10-10-10-10-10-10-10-10----|
|-7-7-7-7-7-7-7-7-7-7-7-7-7-|-5--5-5-5-5--8--8--8--8--8--8--8--8----|
|-5-5-5-5-5-5-5-5-5-5-5-5-5-|---------------------------------------|


  A5                          Dm         F5
  W                           Q.          H                +E
  |                           |           |                 |
  /                           /           /                 /

  E S S S S E S S S S E S S   E  S S S S  E  S  S  S  S  E  S  S
|---------------------------|------------------------------------|
|---------------------------|------------------------------------|
|---------------------------|------------------------------------|
|---------------------------|-7--7-7-7-7-10-10-10-10-10-10-10-10-|
|-7-7-7-7-7-7-7-7-7-7-7-7-7-|-5--5-5-5-5--8--8--8--8--8--8--8--8-|
|-5-5-5-5-5-5-5-5-5-5-5-5-5-|------------------------------------|


  A5                          Dm         F5                        A5
  W                           Q.          H                +E      W
  |                           |           |                 |      |
  /                           /           /                 /      /

  E S S S S E S S S S E S S   E  S S S S  E  S  S  S  S  E  S  S   W
|---------------------------|------------------------------------|------*|
|---------------------------|------------------------------------|------*|
|---------------------------|------------------------------------|------*|
|---------------------------|-7--7-7-7-7-10-10-10-10-10-10-10-10-|-7----*|
|-7-7-7-7-7-7-7-7-7-7-7-7-7-|-5--5-5-5-5--8--8--8--8--8--8--8--8-|-7----*|
|-5-5-5-5-5-5-5-5-5-5-5-5-5-|------------------------------------|-5----*|



Duration Legend
---------------
W - whole; H - half; Q - quarter; E - 8th; S - 16th; T - 32nd; X - 64th; a - acciaccatura
+ - note tied to previous; . - note dotted; .. - note double dotted
Uncapitalized letters represent notes that are staccato (1/2 duration)
Irregular groupings are notated above the duration line
Duration letters will always appear directly above the note/fret number it represents the
duration for.  Duration letters with no fret number below them represent rests.  Multi-
bar rests are notated in the form Wxn, where n is the number of bars to rest for.  Low
melody durations appear below the staff

Tablature Legend
----------------
 h   - hammer-on
 p   - pull-off
 b   - bend
 pb  - pre-bend
 r   - bend release (if no number after the r, then release immediately)
 /\  - slide into or out of (from/to "nowhere")
 s   - legato slide
 S   - shift slide
 - natural harmonic
[n]  - artificial harmonic
n(n) - tapped harmonic
 ~   - vibrato
 tr  - trill
 T   - tap
 TP  - trem. picking
 PM  - palm muting
\n/  - tremolo bar dip; n = amount to dip
 \n  - tremolo bar down
 n/  - tremolo bar up
/n\  - tremolo bar inverted dip
 =   - hold bend; also acts as connecting device for hammers/pulls
 <> - volume swell (louder/softer)
 x   - on rhythm slash represents muted slash
 o   - on rhythm slash represents single note slash

Misc Legend
-----------
 |  - bar
||  - double bar
||o - repeat start
o|| - repeat end
*|  - double bar (ending)
 :  - bar (freetime)
 $  - Segno
 &  - Coda
Tempo markers -  = BPM(8/16=s8/s16), where s8 = swing 8ths, s16 = swing 16ths

Tap to rate this tab
 
# A B C D E F G H I J K L M N O P Q R S T U V W X Y Z